Oops, an error
Loading. Please wait.

Stranded Tab

version 2
version 2

Whole song

  • More accurate tabs and chord placement. Recommend ... Show more
4 views 1 this week
no commentswrite comment
1 2 3 4 5
3 more votes to show rating
add to favorites
launch autoscroll
font size
0
reset
how to read this tab
guitar tuner
Autoscroll
slow
fast
+/-
esc
set tempo
stop
Help us to improve Ultimate-Guitar.com Take our survey!
×
Author
Difficulty
intermediate
About this tab version
More accurate tabs and chord placement. Recommend listening to the song in order to get the plugging speed variation (I can't remember the word for this). Was this info helpful? Yes No
[Intro]

Guitar 1: A, E, D, Gbm, E  (play this 3 times)

Guitar 2: Play after one rep from Guitar 1
e|-----------------------------------------------------------------------------------------------------------|
B|---------2-------------5-------------------------------------2-------------5-------------------------------|
G|-----2-4---4-2-4-2h4s6---6-4-----2-1-2-------------------2-4---4-2-4-2h4s6---6-4-----2-4-2--2h4p2-2h4p2-1-2|
D|-2h4-------------------------2h4-------4-2-----------2h4-------------------------2h4-----------------------|
A|-------------------------------------------4-2-2-4-2-------------------------------------------------------|
E|-----------------------------------------------------------------------------------------------------------|


[Verse 1]

A                             E
Where you goin' you're goin' away
D                        Gbm               E
I'll never see the light, see the light of day
A                                E
When you're gone you're gone for good
D                           Gbm               E
I'll never treat you right, treat you like I should


[Chorus]

A                          E
You know you left me empty handed
D                             Gbm      E
You know you left me feelin' stranded
A                        E
You know I hurt so bad inside
D                        Gbm
You know it's eatin' me alive
 E         A       E D Gbm
Eatin' me alive (2x)

e|-----------------------------------------------------------------------------------------------------------|
B|---------2----------------2--------------------------------------------------------------------------------|
G|-----2-4---4-2-4------2-4---4-2----------------------------------------------------------------------------|
D|-2h4--------------2h4--------------------------------------------------------------------------------------|
A|-----------------------------------------------------------------------------------------------------------|
E|-----------------------------------------------------------------------------------------------------------|

e|-----------------------------------------------------------------------------------------------------------|
B|-----------------------------------------------------------------------------------------------------------|
G|-6s7s6--9-9-9-9-7-6s7-4-2--9-9-9-9-7-6s7-4-2--9-10-10-11-9-7-6s7-4-2-9-9-9-9-7-6s7s6--9-9-9-9-7-6s7s6-6s7s6|
D|-----------------------------------------------------------------------------------------------------------|
A|-----------------------------------------------------------------------------------------------------------|
E|-----------------------------------------------------------------------------------------------------------|

e|-----------------------------------------------------------------------------------------------------------|
B|-----------------------------------------------------------------------------------------------------------|
G|-9-9-9-9-7-6s7-4-2--9-10-10-11-9-7-6s7-4-2--6-6-6-7-6--4--4-4-4-6-4--2-------------------------------------|
D|-----------------------------------------------------------------------------------------------------------|
A|-----------------------------------------------------------------------------------------------------------|
E|-----------------------------------------------------------------------------------------------------------|


[Verse 2]

  A                E
Yesterday the day before
 D                     Gbm           E
You came a knockin' knockin' at my door
 A                            E
Now those good old days are gone
 D                               Gbm      E
And I just got to carry got to carry on yeah


[Chorus]

A                          E
You know you left me empty handed
D                             Gbm      E
You know you left me feelin' stranded
A                        E
You know I hurt so bad inside
D                        Gbm
You know it's eatin' me alive
 E         A       E D Gbm
Eatin' me alive (2x)


[Outro]

e|-----------------------------------------------------------------------------------------|
B|---------2----------------2--------------------------------------------------------------|
G|-----2-4---4-2-4------2-4---4-2----------------------------------------------------------|
D|-2h4--------------2h4--------------------------------------------------------------------|
A|-----------------------------------------------------------------------------------------|
E|-----------------------------------------------------------------------------------------|
  (x2) 

e|-----------------------------------------------------------------------------------------|
B|-----------------------------------------------------------------------------------------|
G|-9-9-9-7-7s6-4-2--9-9-9-7-7s6-4-2--9-9-9-10-9--7-7-7-7-9-7--6-6-6-6-7-6--4-4-4-4-6-4-----|
D|-----------------------------------------------------------------------------------------|
A|-----------------------------------------------------------------------------------------|
E|-----------------------------------------------------------------------------------------|
  (x4)


************************************

| h  Hammer-on
| p  Pull-off
| s  slide

************************************
Suggest correction
Give kudos to tab author, rate the tab!
1 2 3 4 5
comments
print report bad tab
guest
You may want to rate the tab now too:
select rating
Wanna post a correction for this tab? Suggest correction