Oops, an error
Loading. Please wait.

Coz I Luv You bass

by Slade
520 views 1 this week
no commentswrite comment
1 2 3 4 5
1 last vote to show rating
add to favorites
×
Save as Personal and add changes to this tab that will be seen only by you. Learn more ›
×
You can save this tab as Personal to edit and correct it or add notes. All changes will be seen only by you. Learn more »
launch autoscroll
font size
0
reset
guitar tuner
edit
Autoscroll
slow
fast
+/-
esc
set tempo
stop
Author
Difficulty
Coz I Luv You
Second single and first number 1 for Slade in 1971. Bass performance
Jimmy Lea. Tab by bass50611. Welcome to my interpretation of this
Glam Rock Classic. Not exact but this is what I would play on stage
With fills as the song progresses. Comments at bass254@btinternet.com 

Intro and Verse 1:   NO BASS

Verse 2:
G|----------------------------------------------------
D|----------------------------------------------------
A|-1/5--5--5--1/3--5--5--5--3-------------------------
E|----------------------------5--3--1--3---5--3--1--3-

G|-------------------------------------------------
D|-------------------------------------------------
A|-5--5--5--1/3--5--3/5--3-------------------------
E--------------------------5--3--1--3---5--3--1--3-

Bridge 1:                           (Play This x2)
G|----------------------------------------------
D|------8--8------------------------------------
A|-1--1/-----1--3--4--5-------------------------
E|----------------------5--3--1--3---5--3--1--3-

Solo:                               (Play This x2)
G|--------------------------------------------------
D|--------------------------------------------------
A|-5--5--5--1/3--5--5--5--3-------------------------
E|--------------------------5--3--1--3---5--3--1--3-

                                    (Play This x2)
G|---------------------------------------------
D|------8--8------8--8-------------------------
A|-1--1/-----1--1/-----------------------------
E|---------------------5--3--1--3---5--3--1--3-

Verse 3:                            (Play This x2)
G|--------------------------------------------------
D|--------------------------------------------------
A|-5--5--5--1/3--5--5--5--3-------------------------
E|--------------------------5--3--1--3---5--3--1--3-

Bridge 2:                           (Play This x2)
G|-----------3--5--6--7-------------------------
D|------8--8------------------------------------
A|-1--1/----------------------------------------
E|----------------------5--3--1--3---5--3--1--3-

Verse 4:
G|---------------------------------------------------
D|---------------------------------------------------
A|-5--5--5--1/3--5--5--5-4-5-------------------------
E|---------------------------5--3--1--3---5--3--1--3-

G|--------------------------------------------------
D|--------------------------------------------------
A|-5--5--5-4-5--5--5--5-4-5-------------------------
E|--------------------------5--3--1--3---5--3--1--3-

Bridge 3:
G|-----------3--5--6--7-------------------------
D|------8--8------------------------------------
A|-1--1/----------------------------------------
E|----------------------5--3--1--3---5--3--1--3-

G|------------------------------------------------
D|------8--8--------------------------------------
A|-1--1/-----1--3--4--5----------------12--12--12-
E|----------------------5--3--1--3---5/-----------

Verse 5:
G|----------------------------------------------------
D|----------------------------------------------------
A|-5--5--5-4-5--5--5--5-4-5----------------12--12--12-
E|--------------------------5--3--1--3---5/-----------

G|--------------------------------------------------
D|--------------------------------------------------
A|-5--5--5-4-5--5--5--5-4-5-------------------------
E|--------------------------5--3--1--3---5--3--1--3-

Bridge 4:
G|----------------------------------------------
D|------8--8------------------------------------
A|-1--1/-----1--3--4--5-------------------------
E|----------------------5--3--1--3---5--3--1--3-

G|---------------------------------------------
D|------8--8------8--8-------------------------
A|-1--1/-----1--1/-----------------------------
E|---------------------5--3--1--3---5--3--1--3-

Outro:                                  (Play This x2)
G|---------------------------------------------------
D|---------------------------------------------------
A|-5--5--5--1/3--5--5--5-4-5-------------------------
E|---------------------------5--5--5--5---5--5--5--5-

Repeat Bridge 4: (Song Fades Out)


            
            
Suggest correction
Creating personal tab
Creating personal tab
You can edit any tab online and save it as your Personal.

You can edit, replace or remove any tab part or add personal notes – all changes will be seen only by you.

Personal tabs can be accessed anytime from any device, even offline.
Learn more »
Give kudos to tab author, rate the tab!
1 2 3 4 5
comments
print report bad tab
guest
You may want to rate the tab now too:
select rating
Wanna post a correction for this tab? Suggest correction