Oops, an error
Loading. Please wait.

Far Far Away bass

version 1
version 1

Whole song

Interactive

by Slade
923 views 18 this week
1 commentread comment
1 2 3 4 5
1 last vote to show rating
add to favorites
×
Save as Personal and add changes to this tab that will be seen only by you. Learn more ›
×
You can save this tab as Personal to edit and correct it or add notes. All changes will be seen only by you. Learn more »
launch autoscroll
font size
0
reset
guitar tuner
edit
Autoscroll
slow
fast
+/-
esc
set tempo
stop
Author
Far Far Away
Single by released by Glam Rock Band Slade in 1974 reached number 2 UK
Bass performance Jimmy Lea. Tab by bass 50611. Welcome to my tab. Not
Exact as Jimmy Lea’s bass line but very near to it.
Comments at bass254@btinternet.com 

Intro:
G|-------|---6--7--9---6-----6--7--9---6-----6--7--9---6-----6--7--9---6-|
D|--DRUM-|-9---------------9---------------9---------------9-------------|
A|-START-|---------------------------------------------------------------|
E|-------|---------------------------------------------------------------|

Verse 1:
G|-------------------------------------------------------------------|
D|-------------------------------------------------------5--5---7--7-|
A|-2--2---0--0---2--2---4--4---2--2---0--0---2--2--2--2--------------|
E|-------------------------------------------------------------------|

G|-7--5--4-------------------------------------------------------------|
D|---------7--5--4--2--0-----------------------------------------------|
A|-----------------------0--2--3--4---2--2---0--0---2--2---4--4---2--2-|
E|---------------------------------------------------------------------|

G|--------------------------------7--5--4--------------------------|
D|--------------------5--5---7--7---------7--5--4--2--0------------|
A|-0--0---2--2--2--2------------------------------------0--2--3--4-|
E|-----------------------------------------------------------------|

Chorus:                              (Play This Bit x2)
G|--------------------------------------------------|
D|--------------------------------------------------|
A|-5--5---4--4---2--2--------------------0--2--3--4-|
E|---------------------5--5---3--2--0--2------------|

G|----------------------------------------------------|
D|----------------------------------------------------|
A|-5--5---4--4---2--2---------------------------------|
E|---------------------5--5---3--3--3--3---2--3--5--6-|

Instrumental:
G|---6--7--9---6-----6--7--9---6-----6--7--9---6-----6--7--9---6-|
D|-9---------------9---------------9---------------9-------------|
A|---------------------------------------------------------------|
E|---------------------------------------------------------------|

Verse 2:
G|-------------------------------------------------------------------|
D|-------------------------------------------------------5--5---7--7-|
A|-2--2---0--0---2--2---4--4---2--2---0--0---2--2--2--2--------------|
E|-------------------------------------------------------------------|

G|-7--5--4--------------------------|
D|---------7--5--4--2--0------------|
A|-----------------------0--2--3--4-|
E|----------------------------------|

Chorus:                              (Play This Bit x2)
G|--------------------------------------------------|
D|--------------------------------------------------|
A|-5--5---4--4---2--2--------------------0--2--3--4-|
E|---------------------5--5---3--2--0--2------------|

G|----------------------------------------------------|
D|----------------------------------------------------|
A|-5--5---4--4---2--2---------------------------------|
E|---------------------5--5---3--3--3--3---2--3--5--6-|

Instrumental:
G|---6--7--9---6-----6--7--9---6-----6--7--9---6-----6--7--9---6-|
D|-9---------------9---------------9---------------9-------------|
A|---------------------------------------------------------------|
E|---------------------------------------------------------------|

Verse 3:
G|-------------------------------------------------------------------|
D|-------------------------------------------------------5--5---7--7-|
A|-2--2---0--0---2--2---4--4---2--2---0--0---2--2--2--2--------------|
E|-------------------------------------------------------------------|

G|-7--5--4--------------------------|
D|---------7--5--4--2--0------------|
A|-----------------------0--2--3--4-|
E|----------------------------------|

Chorus:                              (Play This Bit x2)
G|--------------------------------------------------|
D|--------------------------------------------------|
A|-5--5---4--4---2--2--------------------0--2--3--4-|
E|---------------------5--5---3--2--0--2------------|

G|----------------------------------------------------|
D|----------------------------------------------------|
A|-5--5---4--4---2--2---------------------------------|
E|---------------------5--5---3--3--3--3---2--3--5--6-|

Instrumental:
G|---6--7--9---6-----6--7--9---6-----6--7--9---6-------------|
D|-9---------------9---------------9-------------------------|
A|-----------------------------------------------------------|
E|------------------------------------------------7--7--7--7-|

Chorus:                                   (Play this x2)
G|-7--7---6--6---4--4--------------------2--4--5--6-|
D|---------------------7--7---5--4--2--4------------|
A|--------------------------------------------------|
E|--------------------------------------------------|

G|-7--7---6--6---4--4---------------------------------|
D|---------------------7--7---5--5--5--5---4--5--7--8-|
A|----------------------------------------------------|
E|----------------------------------------------------|

Outro:                                                (End)
G|---6--7--9---6-----6--7--9---6-----6--7--9---6----------|
D|-9---------------9---------------9--------------9--7--9-|
A|--------------------------------------------------------|
E|--------------------------------------------------------|

            
            
Suggest correction
Creating personal tab
Creating personal tab
You can edit any tab online and save it as your Personal.

You can edit, replace or remove any tab part or add personal notes – all changes will be seen only by you.

Personal tabs can be accessed anytime from any device, even offline.
Learn more »
Give kudos to tab author, rate the tab!
1 2 3 4 5
comments
print report bad tab
1 comment total.
0 reply
Mooro1966 10 Jul 07, 2016 06:13 AM

Superb! Thanks Keith.

guest
You may want to rate the tab now too:
select rating
Wanna post a correction for this tab? Suggest correction