Oops, an error
Loading. Please wait.

Merry Christmas Everybody bass

version 3
version 3

Whole song

Interactive

by Slade
6,331 views 1 this week
1 commentread comment
1 2 3 4 5
x 3
add to favorites
×
Save as Personal and add changes to this tab that will be seen only by you. Learn more ›
×
You can save this tab as Personal to edit and correct it or add notes. All changes will be seen only by you. Learn more »
launch autoscroll
font size
0
reset
guitar tuner
edit
Autoscroll
slow
fast
+/-
esc
set tempo
stop
Author
Difficulty
Artist		Slade
Album           Any Christmas Album
Title		Merry Christmas Everybody
Year		1973
Bass Played By	Jim Lea
Tabbed by	Andy Rolland
Updated by	Hans Bollen
Tuning		Standard
Tempo		128 bpm

Hans did update the tabs to improve finger setting with less changing position

Intro
    G|-----------------|-----------------|-----------------|-----------------|
    D|-8---8---7---7---|-5---5-----------|-----------------|-----------------|
    A|-----------------|---------8---8---|-5---5---5---5---|-5---5---5---5---|
    E|-----------------|-----------------|-----------------|-----------------|


Verse 1
(Line 1 : Play 2 times)
    G|-----------------|-----------------|-----------------|------------------|
    D|o----------------|-9-------9-------|-----------------|-4---4---7---7---o|
    A|o-10------7------|-----9-------9---|-5---5---7---7---|-----------------o|
    E|------10-----7---|-----------------|-----------------|------------------|

    G|-5---5---4-------|-------------4---|-5---5---4-------|-----------------|
    D|-------------7---|-5---5---7-------|-------------7---|-5---5---5---5-7-|
    A|-----------------|-----------------|-----------------|-------5---------|
    E|-----------------|-----------------|-----------------|-----------------|

    G|-------------4h5-|-5---5---5---5---|-----------------|-----------------|
    D|-7---7---7--7----|-----------------|-----------------|-------------4---|
    A|-----------------|-----------------|-5---5---5---5---|-5---5---7-------|
    E|-----------------|-----------------|-----------------|-----------------|


Chorus
    G|-----------------|-----------------|-----------------|-----------------|
    D|-5---4-----------|---------4-------|-----------------|---------4---7---|
    A|---------7---5---|-----5-------5---|-8---7---5-------|-5---7-----------|
    E|-----------------|-7---------------|-------------6---|-----------------|

    G|-----------------|-----------------|-----------------|-----------------|
    D|-5---4-----------|---------4-------|-----------------|-----------------|
    A|---------7---5---|-----5-------5---|-8-------7-------|-5---------------|
    E|-----------------|-7---------------|-----------------|---------6-------|

    G|-----------------|-----------------|
    D|-----------------|-----------------|
    A|-5---5---5---5---|-5---5---5---5---|
    E|-----------------|-----------------|


Verse 2
(Line 1 : Play 2 times)
    G|-----------------|-----------------|-----------------|------------------|
    D|o----------------|-9-------9-------|-----------------|-4---4---7---7---o|
    A|o-10------7------|-----9-------9---|-5---5---7---7---|-----------------o|
    E|------10-----7---|-----------------|-----------------|------------------|

    G|-5---5---4-------|-------------4---|-5---5---4-------|-----------------|
    D|-------------7---|-5---5---7-------|-------------7---|-5---5---5---5-7-|
    A|-----------------|-----------------|-----------------|-------5---------|
    E|-----------------|-----------------|-----------------|-----------------|

    G|-------------4h5-|-5---5---5---5---|-----------------|-----------------|
    D|-7---7---7--7----|-----------------|-----------------|-------------4---|
    A|-----------------|-----------------|-5---5---5---5---|-5---5---7-------|
    E|-----------------|-----------------|-----------------|-----------------|


Chorus
    G|-----------------|-----------------|-----------------|-----------------|
    D|-5---4-----------|---------4-------|-----------------|---------4---7---|
    A|---------7---5---|-----5-------5---|-8---7---5-------|-5---7-----------|
    E|-----------------|-7---------------|-------------6---|-----------------|

    G|-----------------|-----------------|-----------------|-----------------|
    D|-5---4-----------|---------4-------|-----------------|-----------------|
    A|---------7---5---|-----5-------5---|-8-------7-------|-5---------------|
    E|-----------------|-7---------------|-----------------|---------6-------|

    G|-----------------|-----------------|
    D|-----------------|-----------------|
    A|-5---5---5---5---|-5---5---5---5---|
    E|-----------------|-----------------|


Interlude Bass Solo
    G|-..---..--------14---|------..---..--------|-..---..--------14---|
    D|-12---..-1215---..---|-15--------12---15---|-12---..-1215---..---|
    A|-..---..---..---..---|-..-13..-13..---..---|-..---..---..---..---|
    E|-..---..---..---..---|-..---..---..---..---|-..---..---..---..---|

    G|------..---..--------|-..---..---..---..---|-..---..---..---..---|
    D|-15--------12---15---|-10---10---10---10-12|-12---12---12---12---|
    A|-..-13..-13..---..---|-..---..---..---..---|-..---..---..---..---|
    E|-..---..---..---..---|-..---..---..---..---|-..---..---..---..---|


Verse 3
(Line 1 : Play 2 times)
    G|-----------------|-----------------|-----------------|------------------|
    D|o----------------|-9-------9-------|-----------------|-4---4---7---7---o|
    A|o-10------7------|-----9-------9---|-5---5---7---7---|-----------------o|
    E|------10-----7---|-----------------|-----------------|------------------|

    G|-5---5---4-------|-------------4---|-5---5---4-------|-----------------|
    D|-------------7---|-5---5---7-------|-------------7---|-5---5---5---5-7-|
    A|-----------------|-----------------|-----------------|-------5---------|
    E|-----------------|-----------------|-----------------|-----------------|

    G|-------------4h5-|-5---5---5---5---|-----------------|-7-7-7-7-7-7-7-7-|
    D|-7---7---7--7----|-----------------|-----------------|-------------4---|
    A|-----------------|-----------------|-5---5---5---5---|-5---5---7-------|
    E|-----------------|-----------------|-----------------|-----------------|


Chorus  till end
    G|------------------|-----------------|-----------------|-----------------|
    D|o-5---4-----------|---------4-------|-----------------|---------4---7---|
    A|o---------7---5---|-----5-------5---|-8---7---5-------|-5---7-----------|
    E|------------------|-7---------------|-------------6---|-----------------|

    G|-----------------|-----------------|-----------------|-----------------|
    D|-5---4-----------|---------4-------|-----------------|-----------------|
    A|---------7---5---|-----5-------5---|-8---8---7---7---|-5---5-----------|
    E|-----------------|-7---------------|-----------------|---------6---6---|

    G|-----------------|-7-7-7-7-7-7-7-7--|
    D|-----------------|-------------4---o|
    A|-5---5---5---5---|-5---5---7-------o|
    E|-----------------|------------------|


End
     |-----------------|-----------------|-----------------|
     |-----------------|-----------------|-----------------|
     |--8-------7------|-5---------------|-5---7---9-------| (slide 5 - 9)
     |-----------------|---------6-------|-----------------|
Suggest correction
Creating personal tab
Creating personal tab
You can edit any tab online and save it as your Personal.

You can edit, replace or remove any tab part or add personal notes – all changes will be seen only by you.

Personal tabs can be accessed anytime from any device, even offline.
Learn more »
Give kudos to tab author, rate the tab!
1 2 3 4 5
comments
print report bad tab
1 comment total.
0 reply
CharGuitarGirl 41 Nov 25, 2009 04:31 AM

so glad i checked this version instead of the one rated 5 stars, this just works better. =] x

guest
You may want to rate the tab now too:
select rating
Wanna post a correction for this tab? Suggest correction