Oops, an error
Loading. Please wait.

Biker Babes tab

10 views 1 this week
no commentswrite comment
1 2 3 4 5
3 more votes to show rating
add to favorites
×
Save as Personal and add changes to this tab that will be seen only by you. Learn more ›
×
You can save this tab as Personal to edit and correct it or add notes. All changes will be seen only by you. Learn more »
launch autoscroll
font size
0
reset
how to read this tab
guitar tuner
edit
Autoscroll
slow
fast
+/-
esc
set tempo
stop
Author
Difficulty
[Intro]
e|--5--------------5----4----------7-------------------------------------------|
B|-------5------------------6/7-----------7--------------7----5----------------|
G|------------6--------------------------------7---------7---------4-----------|   X2
D|--7--------------7----------------------9---------9-------------------4----6-|
A|-----------------------------------------------------------------------------|
E|-----------------------------------------------------------------------------|

A                      D      Bm     A
     Some people wanna try to sell a bike
                    D              Bm                     A
But I'm a broker of heartbreak, so stay away from this exchange
                  D          Bm     A
Some people wanna know how I got so hard
                  D          Bm          A
My sense of it, I can't even feel my own heart

   A (strum w/ song)                E (ibid)
e|----------------------------------0------------------------------------------|
B|-2--------------------------------0------------------------------------------|
G|-2--------------------------------1------------------------------------------| 
D|-2--------------------------------2------------------------------------------|
A|-0-----------------0--------------2------------------------------------------|
E|------------------------4----2----0-------------------0----2----4------------|

A                        Bm         E
     She was the hottest motorcycle babe
A                           Bm          E
  Didn't wear a helmet; her chopper had painted flames
A                              Bm   E
     She smoked two cigarettes at a time
        A                  Bm      E
And she didn't wear makeup on her eyes

e|---------------------------------------------------------------------------|
B|----------5-------7---5---7---5--------------------------------------------|
G|----------6--------------------------------7-------7---6-------6-----------|
D|---7----------7-----------7----------7/9-------9-----------9---------------|
A|---------------------------------------------------------------------------|
E|---------------------------------------------------------------------------|

(play riff above; the chords are A Bm E like the previous verse)
Now I'm dead and I'm ditchin' on you all

Now I'm dead, and I'm all alone

I can't feel my fingers, I can't feel my toes

 

************************************

| /  Slide up

************************************

            
            
Suggest correction
Creating personal tab
Creating personal tab
You can edit any tab online and save it as your Personal.

You can edit, replace or remove any tab part or add personal notes – all changes will be seen only by you.

Personal tabs can be accessed anytime from any device, even offline.
Learn more »
Give kudos to tab author, rate the tab!
1 2 3 4 5
comments
print report bad tab
guest
You may want to rate the tab now too:
select rating
Wanna post a correction for this tab? Suggest correction