Oops, an error
Loading. Please wait.

Too Sweet To Forget Tab

4,751 views 12 this week
no commentswrite comment
1 2 3 4 5
excellent!
x 3
add to favorites
launch autoscroll
font size
0
reset
how to read this tab
guitar tuner
Autoscroll
slow
fast
+/-
esc
set tempo
stop
Help us to improve Ultimate-Guitar.com Take our survey!
×
Author
Song        : Too Sweet To Forget
Artist      : Slank
Tabbed by   : yoos (yoosyoes.blogspot.com)



Guitar1 @ I took my guitar....
e|------------------------------------------------------0------------|
B|--0---0---0-1-3---0---0---0-1-3---0---0---0-1-3---1-------1--------|
G|----0---0-------0---0---0-------0---0---0-------0---2---2-----0----|
D|----------------------------------2---------------3---------2---2--|
A|------------------3---------------------------------------3--------|
E|--3----------------------------------------------------------------|

Guitar1 @ Chorus
e|--------------------------------------3-------3-------0------------|
B|--0---0---0---0---1---1---1---1---1-----1-0-----0-1-----1-1---1----|
G|----0---0---0---0---2---2---0---0---2-------0-------2-------0---0--|
D|------------------3-----------------------2-------3----------------|
A|--------------------------3-------0-----------------------3--------|
E|--3----------------------------------------------------------------|

e|--------------------------------------3-------3-------0----------------------------|
B|--0---0---0---0---1---1---1---1---1-----1-0-----0-1-----1-1---1---1---1---0h1p0----|
G|----0---0---0---0---2---2---0---0---2-------0-------2-------0---0---0---0-------0--|
D|------------------3-----------------------2-------3--------------------------------|
A|--------------------------3-------0-----------------------3------------------------|
E|--3--------------------------------------------------------------------------------|


Guitar2 @ Chorus
e|--3---3---3---3---3---3---3---3---0---0---0---0--------------------|
B|----0---0---0---0---1---1---1---1---1---1---0---0-1---1---1---1----|
G|----------------------------------------------------2---2---0---0--|
D|------------------3-----------------------2-------3----------------|
A|--------------------------3-------0-----------------------3--------|
E|--3----------------------------------------------------------------|

Guitar2 @ Intro
e|--5-3---3-----5-3---3-----5---3-----5-3---3-----5-3---3-----5---3----|
B|------3---3-------3---3---------3-------3---3-------3---3---------3--|
G|---------------------------------------------------------------------|
D|---------------------------------------------------------------------|
A|---------------------------------------------------------------------|
E|---------------------------------------------------------------------|

Guitar2 @ Inside of cold dark...
e|---------------------------------------------------------------------|
B|--------3---------------3---------------1---------1-----1---------1--|
G|------2---2---2-------2---2---2-----------2-----2---------2-----2----|
D|----0-------0---0---0-------0---0-----2-------2-------2-------2------|
A|--0---------------0-----------------0-------0-------0-------0--------|
E|---------------------------------------------------------------------|

Guitar1 @ Outro
e|--------------------------------------------------3--|
B|--0---0---0-1-3---0---0---0-1---1h3p1p0----------0---|
G|----0---0-------0---0---0---------------0-------0----|
D|-----------------------------------------------0-----|
A|------------------3---------------------------2------|
E|--3------------------------------------------3-------|
Suggest correction
Give kudos to tab author, rate the tab!
1 2 3 4 5
comments
print report bad tab
guest
You may want to rate the tab now too:
select rating
Wanna post a correction for this tab? Suggest correction