Oops, an error
Loading. Please wait.

Adios ukulele

80 views 1 this week
no commentswrite comment
1 2 3 4 5
3 more votes to show rating
add to favorites
×
Save as Personal and add changes to this tab that will be seen only by you. Learn more ›
×
You can save this tab as Personal to edit and correct it or add notes. All changes will be seen only by you. Learn more »
launch autoscroll
font size
0
reset
transpose
0
reset
display chords
guitar tuner
edit
Autoscroll
slow
fast
+/-
esc
set tempo
stop
Difficulty
Strumming
There is no strumming pattern for this song yet. and get +5 IQ
	===================================================================================================
	---------------------------------------------------------------------------------------------------
							Adios
	---------------------------------------------------------------------------------------------------
	===================================================================================================


Song: Adios
Album: Silence
Artist: Slapshock

Ear Tabber	: Gabriel del Rosario
Age		: 16 y/o
Address		: Encarnation Subdivision, San Jose City, Nueva Ecija
School		: Mount Carmel Montessori Center
E mail add	: wackanerdzsz@yahoo.com
Contact number	: [Not yet available - Na-Sim Block eh, heheh..]
Date of tab	: February 24,2007 (1:36-2:30pm)- February 25, 2007 (12:36-1:02am)




=======================
Tuning: Drop D (DADGBE)
=======================
================
 / - Slide up
 \ - Slide down
 h - Hammer-on
 x - Pause/Mute
 ~ - Let ring
 * - Palm mute
================



NOTE: Etong Intro 1 lang po ang di ko talaga sure (mga 75%) because masyadong
      magulo yung tunog nung wah-wah tsaka hindi pa available yung wah-wah dito.
      
      But I guarantee the rest of this tab (from Intro 2 down to the last freakin'
      chord) to be 99.9% accurate. Thanks and pump up the volume guys! \m/



========
Intro 1:  Effect: Wah-wah pedal
========


E|---------------------------------------------------------------------------|
B|---------------------------------------------------------------------------|
G|---7\5--5-5-5-----7\5--5-5-5----7\5--5-5-5-----7\5--5-5-5---/17-17-17-17---|
D|---x-x--x-x-x-----x-x--x-x-x----x-x--x-x-x-----x-x--x-x-x---/xx-xx-xx-xx---|
A|---5\3--3-3-3-----5\3--3-3-3----5\3--3-3-3-----5\3--3-3-3---/15-15-15-15---|
D|---------------------------------------------------------------------------|



========
Intro 2:
========


E|-------------------------------------------------------------------------|
B|-------------------------------------------------------------------------|
G|-------------------------------------------------------------------------|  Repeat
D|-------------------------------------------------------------------------| 4 Times
A|--10-10-10-10-10-10-10-10-10-11------------------------------------------|
D|--10-10-10-10-10-10-10-10-10-11------------------------------------------|



======
Verse: 
======

       Nag-iiba na ang..          ..iyong anyo wooh..

E|-------------------------------------------------------------------------|
B|-------------------------------------------------------------------------|
G|-------------------------------------------------------------------------|
D|-------------------------------------------------------------------------|
A|-------------------------------------------------------------------------|
D|--10-10-10-10-10-10-10-10--------6-6-6-6-6-6-6-6-------------------------|
     *  *  *  *  *  *  *  *        * * * * * * * *

       Nagtataka sa mga..          ..kilos mo, wooh..

E|-------------------------------------------------------------------------|
B|-------------------------------------------------------------------------|
G|-------------------------------------------------------------------------|
D|-------------------------------------------------------------------------|
A|-------------------------------------------6-6-6-------------------------|
D|--10-10-10-10-10-10-10-10--------6-6-6-6-6-6-6-6-------------------------|
     *  *  *  *  *  *  *  *        * * * * * * 



========
Refrain:
========

        Sa tuwing lumalayo..                  ..ika'y lumalapit

E|-----------------------------------------------------------------------------------|
B|-----------------------------------------------------------------------------------|
G|-----------------------------------------------------------------------------------|
D|--8h10-10-10--8-10--10--8h10-10-10---8h10-10-10--8-10--10--8h10-10-10--------------|
A|--8h10-10-10--8-10--10--8h10-10-10---8h10-10-10--8-10--10--8h10-10-10--------------|
D|--8h10-10-10--8-10--10--8h10-10-10---8h10-10-10--8-10--10--8h10-10-10--------------|


  
                                          ..(Nalunod ka sa pag ibig!)..

E|-----------------------------------------------------------------------------------|
B|-----------------------------------------------------------------------------------|
G|-----------------------------------------------------------------------------------|
D|--5h6-6-6-6---5-6-6--6----5h6-6-6-6---5h6-6-6-6---5-6-6--6---5h6-6-6-6-------------|
A|--5h6-6-6-6---5-6-6--6----5h6-6-6-6---5h6-6-6-6---5-6-6--6---5h6-6-6-6-------------|
D|--5h6-6-6-6---5-6-6--6----5h6-6-6-6---5h6-6-6-6---5-6-6--6---5h6-6-6-6-------------|



         Di na magbabago..                    ..pag-ikot ng mundo

E|-----------------------------------------------------------------------------------|
B|-----------------------------------------------------------------------------------|
G|-----------------------------------------------------------------------------------|
D|--8h10-10-10--8-10--10--8h10-10-10---8h10-10-10--8-10--10--8h10-10-10--------------|
A|--8h10-10-10--8-10--10--8h10-10-10---8h10-10-10--8-10--10--8h10-10-10--------------|
D|--8h10-10-10--8-10--10--8h10-10-10---8h10-10-10--8-10--10--8h10-10-10--------------|


	
					   ..Tuwing nakatingin sa'yo..

E|-----------------------------------------------------------------------------------|
B|-----------------------------------------------------------------------------------|
G|-----------------------------------------------------------------------------------|
D|--5h6-6-6-6---5-6-6--6----5h6-6-6-6---5h6-6-6-6---5-6-6--6---5h6-6-6-6-------------|
A|--5h6-6-6-6---5-6-6--6----5h6-6-6-6---5h6-6-6-6---5-6-6--6---5h6-6-6-6-------------|
D|--5h6-6-6-6---5-6-6--6----5h6-6-6-6---5h6-6-6-6---5-6-6--6---5h6-6-6-6-------------|




===========
Pre-Chorus:
===========

    Saan ka ba..

E|-------------------------------------------------------------------------|
B|-------------------------------------------------------------------------|
G|-------------------------------------------------------------------------|
D|--10-x-10-10-x-10-x------------------------------------------------------|
A|--10-x-10-10-x-10-x-----3-3-3--5-5--6-6--6-------------------------------|
D|--10-x-10-10-x-10-x------------------------------------------------------|
 			  * * *  * *  * *  



    Liligaya..

E|-------------------------------------------------------------------------|
B|-------------------------------------------------------------------------|
G|-------------------------------------------------------------------------|
D|--6--x--6-6--x--6--x-----------------------------------------------------|
A|--6--x--6-6--x--6--x-----11-11-11--10-10---------------------------------|
D|--6--x--6-6--x--6--x-----------------------13-13--13---------------------|
			    *  *  *   *  *    *  *


    Tapos na ba..

E|-------------------------------------------------------------------------|
B|-------------------------------------------------------------------------|
G|-------------------------------------------------------------------------|
D|--10-x-10-10-x-10-x------------------------------------------------------|
A|--10-x-10-10-x-10-x-----3-3-3--5-5--6-6--6-------------------------------|
D|--10-x-10-10-x-10-x------------------------------------------------------|
 			  * * *  * *  * *  


   Ang lahat ng ito.. Wooh oh..

E|-------------------------------------------------------------------------|
B|-------------------------------------------------------------------------|
G|-------------------------------------------------------------------------|
D|--6--x--6-6--x--6--x-----------------------------------------------------|
A|--6--x--6-6--x--6--x-----11-11-11--10-10---------------------------------|
D|--6--x--6-6--x--6--x-----------------------13-13--13---------------------|
			    *  *  *   *  *    *  *



E|------------------------------------------------------------------------------|
B|------------------------------------------------------------------------------|
G|---5~-------------------------------------------------------------------------|
D|---5~-----1~-----3~-----6~-----8-8-x--8-8-x-----------------------------------|
A|---3~-----1~-----3~-----6~-----8-8-x--8-8-x-----------------------------------|
D|----------1~-----3~-----6~-----8-8-x--8-8-x-----------------------------------|



=======
Chorus:
=======

Rhythm Guitar:

	Iniwan na sa pag-idlip..    ako'y di na magbabalik         

E|-------------------------------------------------------------|   
B|-------------------------------------------------------------|    
G|-------------------------------------------------------------|    
D|------10-10-10-10-10-10-10-10-----6-6-6-6-6-6-6-6------------|    
A|------10-10-10-10-10-10-10-10-----6-6-6-6-6-6-6-6------------|  
D|------10-10-10-10-10-10-10-10-----6-6-6-6-6-6-6-6------------|    


Lead Guitar:
	
E|-------------------------------------------------------------|
B|-------------------------------------------------------------|
G|-------------------------------------------------------------|   Repeat 
D|-------------------------------------------------------------|  4 Times
A|-------------------------------------------------------------|
D|------10-10-13-10-13-10-12-13----10-10-13-10-13-10-12-13-----|




	Paalam na.. 		    sa'yo..        ADIOS!!!

E|-------------------------------------------------------------|
B|-------------------------------------------------------------| 
G|-------------------------------------------------------------| 
D|--------3-3-3-3-3-3-3-3--------6-6-6-6-6-6-6-6----8-8-8------|  
A|--------3-3-3-3-3-3-3-3--------6-6-6-6-6-6-6-6----8-8-8------|   
D|--------3-3-3-3-3-3-3-3--------6-6-6-6-6-6-6-6----8-8-8------|  



E|-------------------------------------------------------------|
B|-------------------------------------------------------------|
G|-------------------------------------------------------------|  
D|-------------------------------------------------------------|  
A|-------------------------------------------------------------|
D|---10-10-13-10-13-10-12-13-(x3)---10-10-13-10-15-15-15-15----|




===============
Repeat Intro 2:
===============


E|-------------------------------------------------------------------------|
B|-------------------------------------------------------------------------|
G|-------------------------------------------------------------------------|  Repeat
D|-------------------------------------------------------------------------| 4 Times
A|--10-10-10-10-10-10-10-10-10-11------------------------------------------|
D|--10-10-10-10-10-10-10-10-10-11------------------------------------------|



========
Verse 2:
========


      Nagtataka..                  ..mundo ko'y nag-iba

E|-------------------------------------------------------------------------|
B|-------------------------------------------------------------------------|
G|-------------------------------------------------------------------------|
D|-------------------------------------------------------------------------|
A|-------------------------------------------------------------------------|
D|--10-10-10-10-10-10-10-10--------6-6-6-6-6-6-6-6-------------------------|
     *  *  *  *  *  *  *  *        * * * * * * * *

       Nagtatago..                  ..nalilito sa'yo

E|-------------------------------------------------------------------------|
B|-------------------------------------------------------------------------|
G|-------------------------------------------------------------------------|
D|-------------------------------------------------------------------------|
A|-------------------------------------------6-6-6-------------------------|
D|--10-10-10-10-10-10-10-10--------6-6-6-6-6-6-6-6-------------------------|
     *  *  *  *  *  *  *  *        * * * * * * 




==============
Repeat Refrain
==============

=================
Repeat Pre-Chorus
=================

================
Repeat Chorus 2x
================



=======
Bridge:
=======

Rhythm Guitar:

E|-------------------------------------------------------------------------|
B|-------------------------------------------------------------------------|
G|-------------------------------------------------------------------------|
D|---10~-------------------------------------------------------------------|
A|---10~-------------------------------------------------------------------|
D|---10~-------------------------------------------------------------------|

Lead Guitar:

E|-------------------------------------------------------------------------|
B|-------------------------------------------------------------------------|
G|---------------------10-8-7---------------------------10-8-7-------------|
D|----10-10-10-10--10----------10------10-10-10-10--10----------10---------|
A|-------------------------------------------------------------------------|
D|-------------------------------------------------------------------------|
       *  *  *  *   * 			*  *  *  *   *


E|-------------------------------------------------------------------------|
B|-------------------------------------------------------------------------|
G|-------------------------------------------------------------------------|
D|---6~--------------------------------------------------------------------|
A|---6~--------------------------------------------------------------------|
D|---6~--------------------------------------------------------------------|


E|-------------------------------------------------------------------------|
B|-------------------------------------------------------------------------|
G|---------------------10-8-7---------------------------10-8-7-------------|
D|-----6--6--6--6---6----------10-------6--6--6--6---6----------10---------|
A|-------------------------------------------------------------------------|
D|-------------------------------------------------------------------------|
       *  *  *  *   * 			*  *  *  *   *


E|-------------------------------------------------------------------------|
B|-------------------------------------------------------------------------|
G|-------------------------------------------------------------------------|
D|---10-10---10-10---10-10-10-10-10----10-10---10-10---10-10-10-10-10------|
A|---10-10---10-10---10-10-10-10-10----10-10---10-10---10-10-10-10-10------|
D|---10-10---10-10---10-10-10-10-10----10-10---10-10---10-10-10-10-10------|
      *  *    *  *    *  *  *  *  *    *  *    *  *    *  *  *  *  *

E|-------------------------------------------------------------------------|
B|-------------------------------------------------------------------------|
G|---------------------10-8-7---------------------------10-8-7-------------|
D|----10-10-10-10--10----------10------10-10-10-10--10----------10---------|
A|-------------------------------------------------------------------------|
D|-------------------------------------------------------------------------|
       *  *  *  *   * 			*  *  *  *   *



E|-------------------------------------------------------------------------|
B|-------------------------------------------------------------------------|
G|-------------------------------------------------------------------------|
D|----6--6----6--6----6-6-6-6-6-6----6--6----6--6----6-6-6-6-6-6-----------|
A|----6--6----6--6----6-6-6-6-6-6----6--6----6--6----6-6-6-6-6-6-----------|
D|----6--6----6--6----6-6-6-6-6-6----6--6----6--6----6-6-6-6-6-6-----------|
      *  *    *  *    * * * * * *    *  *    *  *    * * * * * *

E|-------------------------------------------------------------------------|
B|-------------------------------------------------------------------------|
G|---------------------10-8-7---------------------------10-8-7-------------|
D|-----6--6--6--6---6----------10-------6--6--6--6---6----------10---------|
A|-------------------------------------------------------------------------|
D|-------------------------------------------------------------------------|
       *  *  *  *   * 			*  *  *  *   *


E|-------------------------------------------------------------------------|
B|-------------------------------------------------------------------------|
G|-------------------------------------------------------------------------|
D|---10-10---10-10---10-10-10-10-10----10-10---10-10---10-10-10-10-10------|
A|---10-10---10-10---10-10-10-10-10----10-10---10-10---10-10-10-10-10------|
D|---10-10---10-10---10-10-10-10-10----10-10---10-10---10-10-10-10-10------|
      *  *    *  *    *  *  *  *  *    *  *    *  *    *  *  *  *  *


E|-------------------------------------------------------------------------|
B|-------------------------------------------------------------------------|
G|-------------------------------------------------------------------------|
D|----6--6----6--6----6-6-6-6-6-6----6--6----6--6----6-6-6-6-6-6-----------|
A|----6--6----6--6----6-6-6-6-6-6----6--6----6--6----6-6-6-6-6-6-----------|
D|----6--6----6--6----6-6-6-6-6-6----6--6----6--6----6-6-6-6-6-6-----------|
      *  *    *  *    * * * * * *    *  *    *  *    * * * * * *



E|------------------------------------------------------------------------------|
B|------------------------------------------------------------------------------|
G|---5~-------------------------------------------------------------------------|
D|---5~-----1~-----3~-----6~-----8-8-x--8-8-x-----------------------------------|
A|---3~-----1~-----3~-----6~-----8-8-x--8-8-x-----------------------------------|
D|----------1~-----3~-----6~-----8-8-x--8-8-x-----------------------------------|



============================
Repeat Chorus 3x then fade..
============================

			
				   -END-




Questions? Comments? Suggestions? Corrections?
Paki E-mail me!: wackanerdzsz@yahoo.com  

            
            
Suggest correction
Creating personal tab
Creating personal tab
You can edit any tab online and save it as your Personal.

You can edit, replace or remove any tab part or add personal notes – all changes will be seen only by you.

Personal tabs can be accessed anytime from any device, even offline.
Learn more »
Give kudos to tab author, rate the tab!
1 2 3 4 5
comments
print report bad tab
guest
Wanna post a correction for this tab? Suggest correction