Oops, an error
Loading. Please wait.

Carino Brutal tab

version 3
version 3

Whole song

Interactive

34 views 1 this week
no commentswrite comment
1 2 3 4 5
3 more votes to show rating
add to favorites
×
Save as Personal and add changes to this tab that will be seen only by you. Learn more ›
×
You can save this tab as Personal to edit and correct it or add notes. All changes will be seen only by you. Learn more »
launch autoscroll
font size
0
reset
how to read this tab
guitar tuner
edit
Autoscroll
slow
fast
+/-
esc
set tempo
stop
Video tutorial for this tab:
https://youtu.be/es911hVATo0

[Intro]
D|----------------------------------------------------------------|
A|----------------------------------------------------------------|
F|----------------------------------------------------------------|
C|---0-----------8-0-----------12-8-0-----------8-0---------------|
G|---0-----------6-0-----------10-6-0-----------6-0---------------|
C|---0---0-0-0-0---0---0-0-0-0------0---0-0-0-0---0---------------|

D|----------------------------------------------------------------|
A|----------------------------------------------------------------|
F|----------------------------------------------------------------|
C|----------------------------------------------------------------|
G|---13-12-10----10-----------------------------------------------|
C|------------13----13p12p10--------------------------------------|

[Verse]
D|----------------------------------------------------------------|
A|----------------------------------------------------------------|
F|----------------------------------------------------------------|
C|---0------------------------------------------------------------|
G|---0---------6-5---------8-5-------------6p5---8p5---3-5--------|
C|---0-0-0-0-0-----0-0-0-0-----0-0-0-0-0-0-----0-----0------------|

D|----------------------------------------------------------------|
A|----------------------------------------------------------------|
F|----------------------------------------------------------------|
C|--------------------------------------------------5-------------|
G|-----------6-5----------------------3-------3h5h6---6p5p3h6-5---|
C|---0-0-0-0-----0-0-0-0-0-0--0h3h5h6---6p5h6---------------------|

[Refrain]
D|----------------------------------------------------------------|
A|----------------------------------------------------------------|
F|---10---12---10---12--------------------------------------------|
C|----------------------------------------------------------------|
G|---8----10---8----10--------------------------------------------|
C|----------------------------------------------------------------|

D|----------------------------------------------------------------|
A|----------------------------------------------------------------|
F|----------------------------------------------------------------|
C|----------------------------------------------------------------|
G|----------------------------------------------------------------|
C|---0-0-0-0-0-0-0-0-0-0---0-0-0-0-0-0-0-0-0-0-0-0-0--------------|

[Pre-Chorus]
D|----------------------------------------------------------------|
A|----------------------------------------------------------------|
F|---10-9-7---10-9-7---10-9-7---12--------------------------------|
C|----------------------------------------------------------------|
G|---8--7-5---8--7-5---8--7-5---10--------------------------------|
C|----------------------------------------------------------------|

D|----------------------------------------------------------------|
A|----------------------------------------------------------------|
F|---14-12--10---14-12-10---15-14-12---17-------------------------|
C|----------------------------------------------------------------|
G|---12-10--8----12-10-8----13-12-10---15-------------------------|
C|----------------------------------------------------------------|

D|----------------------------------------------------------------|
A|----------------------------------------------------------------|
F|----------------------------------------------------------------|
C|----------------------------------------------------------------|
G|----------------------------------------------------------------|
C|---0-0-0-0-0-0-0-0-0-0---0-0-0-0-0-0-0-0-0-0-0-0-0--------------|

D|----------------------------------------------------------------|
A|----------------------------------------------------------------|
F|---10-9-7---10-9-7---10-9-7---12--------------------------------|
C|----------------------------------------------------------------|
G|---8--7-5---8--7-5---8--7-5---10--------------------------------|
C|----------------------------------------------------------------|

D|----------------------------------------------------------------|
A|----------------------------------------------------------------|
F|---14-12--10---14-12-10---15-14-12---17-------------------------|
C|------------------------------------------0---------------------|
G|---12-10--8----12-10-8----13-12-10---15---0---------------------|
C|------------------------------------------0---------------------|

[Chorus]
D|----------------------------------------------------------------|
A|----------------------------------------------------------------|
F|----------------------------------------------------------------|
C|----------------------------------------------------------------|
G|---0-12\---0-12\---0-12\----------------------------------------|
C|---0-12\---0-12\---0-12\----------------------------------------|

D|----------------------------------------------------------------| (2x)
A|----------------------------------------------------------------|
F|-------10---9-------10---9---5-5/7------------------------------|
C|----------------------------------------------------------------|
G|---0-0-8--0-7-0-0-0-8--0-7-0-3-3/5------------------------------|
C|---0-0----0---0-0-0----0---0------------------------------------|

D|----------------------------------------------------------------|
A|----------------------------------------------------------------|
F|-------12-x-10-------12-x-10-x-9-9/10---------------------------|
C|----------------------------------------------------------------|
G|---8-8-10-x-8--8-8-8-10-x-8--x-7-7/8----------------------------|
C|---8-8---------8-8-8--------------------------------------------|

D|----------------------------------------------------------------|
A|----------------------------------------------------------------|
F|---------14-x-12----------15-x-14-x-12-12/14--------------------|
C|----------------------------------------------------------------|
G|---10-10-12-x-10-10-10-10-13-x-12-x-10-10/12--------------------|
C|---10-10---------10-10-10---------------------------------------|

[Bridge]
D|----------------------------------------------------------------|
A|----------------------------------------------------------------|
F|---10---12---10---12--------------------------------------------|
C|----------------------------------------------------------------|
G|---8----10---8----10--------------------------------------------|
C|----------------------------------------------------------------|

D|----------------------------------------------------------------| (x2)
A|----------------------------------------------------------------|
F|---7-9-10-9-7---------------------------------------------------|
C|--------------8-7-----------------------------------------------|
G|----------------------------------------------------------------|
C|----------------------------------------------------------------|

D|----------------------------------------------------------------|
A|----------------------------------------------------------------|
F|---7-9-10-9-7---10-9-7----7-------------------------------------|
C|--------------8--------10---10-8-7-8----------------------------|
G|----------------------------------------------------------------|
C|----------------------------------------------------------------|

D|----------------------------------------------------------------| (x2)
A|----------------------------------------------------------------|
F|---7-9-10-9-7---------------------------------------------------|
C|--------------8-7-----------------------------------------------|
G|----------------------------------------------------------------|
C|----------------------------------------------------------------|

D|----------------------------------------------------------------| 
A|----------------8-----------------13----------------------------|
F|---7-9-10-9-7-----10-9-7-10-9-7-9-12----------------------------|
C|--------------8-------------------10----------------------------|
G|----------------------------------------------------------------|
C|----------------------------------------------------------------|

[Coda]
D|----------------------------------------------------------------|
A|----------------------------------------------------------------|
F|----------------------------------------------------------------|
C|----------------------------------------------------------------|
G|----------------------------------------------------------------|
C|---0-0-0-0-0h1p0-0-0-0-0h1p0-0-0-0-0-1-1-1-1-1-1-1-1------------|

D|----------------------------------------------------------------|
A|----------------------------------------------------------------|
F|----------------------------------------------------------------|
C|----------------------------------------------------------------|
G|----------------------------------------------------------------|
C|---0-0-0-0-0h1p0-0-0-0-0h1p0-0-0-0-0-12\------------------------|

D|----------------------------------------------------------------|
A|----------------------------------------------------------------|
F|----------------------------------------------------------------|
C|----------------------------------------------------------------|
G|----------------------------------------------------------------|
C|---0-0-0-0-0h1p0-0-0-0-0h1p0-0-0-0-0-1-1-1-1-1-1-1-1------------|

D|----------------------------------------------------------------|
A|----------------------------------------------------------------|
F|----------------------------------------------------------------|
C|-----------------------------------------------------0----------|
G|-----------------------------------------------------0----------|
C|---0-0-0-0-0h1p0-0-0-0-0h1p0-0-0-0-0-1-1-1-1-1-1-1-1-0----------|


************************************

| x   Dead note
| h   Hammer-on
| p   Pull-off
| /   Slide up
| \   Slide down

************************************

            
            
Suggest correction
Creating personal tab
Creating personal tab
You can edit any tab online and save it as your Personal.

You can edit, replace or remove any tab part or add personal notes – all changes will be seen only by you.

Personal tabs can be accessed anytime from any device, even offline.
Learn more »
Give kudos to tab author, rate the tab!
1 2 3 4 5
comments
print report bad tab
guest
You may want to rate the tab now too:
select rating
Wanna post a correction for this tab? Suggest correction