Oops, an error
Loading. Please wait.

Direction tab

version 2
version 2

Whole song

Interactive

2,398 views 1 this week
18 commentsread comments
1 2 3 4 5
x 10
add to favorites
×
Save as Personal and add changes to this tab that will be seen only by you. Learn more ›
×
You can save this tab as Personal to edit and correct it or add notes. All changes will be seen only by you. Learn more »
launch autoscroll
font size
0
reset
how to read this tab
guitar tuner
edit
Autoscroll
slow
fast
+/-
esc
set tempo
stop
Author
Difficulty
Title       : Direction
Artist      : Slapshock
Album       : Silence

Ear tabber  : Walter Michael De la Cruz 
E-mail add 1: Walterfdelacruz@yahoo.com
E-mail add 2: Michaelfdelacruz@yahoo.com 
Website     : www.geocities.com/walterfdelacruz

School      : Saint Louis University, Baguio City
Date of Tab : May 10,2006

This is my first time to tab a rock song. Pero madame na ko Tab dito sa ultimate guitar
Mga MYMP, Hale, Cueshe, 6 cycle mind, Bamboo. Sensya na kung may mga kunting sabit dito.hehe
Ung Rhythm guitar lang ung gagawan ko ng Tab. Sana po magustuhan nyo to. 
Im sure may mga kunting mali dito. And please rate this kung may time kayo.


----------------
StANDARD TUNING |
----------------

Ung Rhythm guitar lang po ung ginawan ko ng tab dito.
Guitar Used with distortion


Legend:

/ slide down
\ slide up
X palm mute
b bent


Verse 1:


e|---------------------------------|
B|---------------------------------|
G|-555555/6\5----555555/6\5--------|
D|-xxxxxx-x------XXXXXXXXXX--------|
A|-333333/4\3----333333/4\3--------|
E|---------------------------------|
        I need your own advice

e|---------------------------------|
B|---------------------------------|
G|-555555/6\5----555555/6\5--------|
D|-xxxxxx-x------XXXXXXXXXX--------|
A|-333333/4\3----333333/4\3--------|
E|---------------------------------|
        Im falling far behind

e|---------------------------------|
B|---------------------------------|
G|-555555/6\5----555555/6\5--------|
D|-xxxxxx-x------XXXXXXXXXX--------|
A|-333333/4\3----333333/4\3--------|
E|---------------------------------|
         You need to tell me now


e|-----------------------------------|
B|-----------------------------------|
G|-----------------------------------|
D|------6--6-----8-8-8-8-------------|  
A|------6--6-----8-8-8-8-------------|
E|------4--4-----6-6-6-6-------------|
 If im pushing you away


Verse 2:


e|---------------------------------------|
B|---------------------------------------|
G|-55X5X5X55X555X55X555------888--101010-|
D|-XXXXXXXXXXXXXXXXXXXX------XXX--X-X-X--|  
A|-33X3X3X33X333X33X333------666--8-8-8--|
E|---------------------------------------|
 I suffer with your  dust

e|---------------------------------------|
B|---------------------------------------|
G|-55X5X5X55X555X55X555------888--101010-|
D|-XXXXXXXXXXXXXXXXXXXX------XXX--X-X-X--|  
A|-33X3X3X33X333X33X333------666--8-8-8--|
E|---------------------------------------|
  Im burnin all your trust

e|---------------------------------------|
B|---------------------------------------|
G|-55X5X5X55X555X55X555------888--101010-|
D|-XXXXXXXXXXXXXXXXXXXX------XXX--X-X-X--|  
A|-33X3X3X33X333X33X333------666--8-8-8--|
E|---------------------------------------|
   I can’t believe it’s true
 

e|----------------------------------------|
B|----------------------------------------|
G|----------------------------------------|
D|--------6666-----8888888----------------|  
A|--------6666-----8888888----------------|
E|--------4444-----6666666----------------|
   That I need you here to stay


                                   Guitar 2
e|---------------------------| |----------------------|                                        
B|---------------------------| |----------------------|                                            
G|-55X5X5X55X555X55X555------| |-11b-12b-13b-15b-17b--|                                      
D|-XXXXXXXXXXXXXXXXXXXX------| |----------------------|  (2x)                                              
A|-33X3X3X33X333X33X333------| |----------------------|                                            
E|---------------------------| |----------------------|  


--------
Chorus: |
--------


e|-----------------------------------------|
B|-----------------------------------------|
G|---------------------55555555555555555---|
D|--66666666666666-----55555555555555555---|  
A|--66666666666666-----33333333333333555---|
E|--44444444444444-------------------------|
       I need your    attention,Point me to the 
                                           
e|--------------------------------------|
B|--------------------------------------|
G|---------------------55555555555555---|
D|--66666666666666-----55555555555555---|  
A|--66666666666666-----33333333333333---|
E|--44444444444444----------------------|
      right            direction

e|--------------------------------------|
B|--------------------------------------|
G|---------------------55555555555555---|
D|--66666666666666-----55555555555555---|  
A|--66666666666666-----33333333333333---|
E|--44444444444444----------------------|
     I’ve made my       decision,Point me to the 

e|--------------------------------------|
B|--------------------------------------|
G|---------------------55555555555555---|
D|--66666666666666-----55555555555555---|  
A|--66666666666666-----33333333333333---|
E|--44444444444444----------------------|
     right               direction


                                   Guitar 2
e|---------------------------| |----------------------|                                        
B|---------------------------| |----------------------|                                            
G|-55X5X5X55X555X55X555------| |-11b-12b-13b-15b-17b--|                                      
D|-XXXXXXXXXXXXXXXXXXXX------| |----------------------|  (2x)                                              
A|-33X3X3X33X333X33X333------| |----------------------|                                            
E|---------------------------| |----------------------|  


--------
Chorus: |
--------


e|--------888888888888----|
B|------------------------|
G|------------------------|
D|------------------------|  
A|------------------------|
E|------------------------|
  I’m looking in your eyes


e|---------------------------------------|
B|---------------------------------------|
G|-55X5X5X55X555X55X555------888--101010-|
D|-XXXXXXXXXXXXXXXXXXXX------XXX--X-X-X--|  
A|-33X3X3X33X333X33X333------666--8-8-8--|
E|---------------------------------------|
  I’m reading all your lies

e|---------------------------------------|
B|---------------------------------------|
G|-55X5X5X55X555X55X555------888--101010-|
D|-XXXXXXXXXXXXXXXXXXXX------XXX--X-X-X--|  
A|-33X3X3X33X333X33X333------666--8-8-8--|
E|---------------------------------------|
   I pretend to be alright

e|----------------------------------------|
B|----------------------------------------|
G|----------------------------------------|
D|--------6666-----8888888----------------|  
A|--------6666-----8888888----------------|
E|--------4444-----6666666----------------|
   But it kills me down inside


e|---------------------------------------|
B|---------------------------------------|
G|-55X5X5X55X555X55X555------888--101010-|
D|-XXXXXXXXXXXXXXXXXXXX------XXX--X-X-X--|  
A|-33X3X3X33X333X33X333------666--8-8-8--|
E|---------------------------------------|
   I need to move away

e|---------------------------------------|
B|---------------------------------------|
G|-55X5X5X55X555X55X555------888--101010-|
D|-XXXXXXXXXXXXXXXXXXXX------XXX--X-X-X--|  
A|-33X3X3X33X333X33X333------666--8-8-8--|
E|---------------------------------------|
  From the broken endless day

e|---------------------------------------|
B|---------------------------------------|
G|-55X5X5X55X555X55X555------888--101010-|
D|-XXXXXXXXXXXXXXXXXXXX------XXX--X-X-X--|  
A|-33X3X3X33X333X33X333------666--8-8-8--|
E|---------------------------------------|
   When time is runnin out
 

e|----------------------------------------|
B|----------------------------------------|
G|----------------------------------------|
D|--------6666-----8888888----------------|  
A|--------6666-----8888888----------------|
E|--------4444-----6666666----------------|
  Can you help me once again



                                   Guitar 2
e|---------------------------| |----------------------|                                        
B|---------------------------| |----------------------|                                            
G|-55X5X5X55X555X55X555------| |-11b-12b-13b-15b-17b--|                                      
D|-XXXXXXXXXXXXXXXXXXXX------| |----------------------|  (2x)                                              
A|-33X3X3X33X333X33X333------| |----------------------|                                            
E|---------------------------| |----------------------|  



--------
Chorus: |
--------

e|-----------------------------------------|
B|-----------------------------------------|
G|---------------------55555555555555555---|
D|--66666666666666-----55555555555555555---|  
A|--66666666666666-----33333333333333555---|
E|--44444444444444-------------------------|
       I need your     attention,Point me to the 
                                           
e|--------------------------------------|
B|--------------------------------------|
G|---------------------55555555555555---|
D|--66666666666666-----55555555555555---|  
A|--66666666666666-----33333333333333---|
E|--44444444444444----------------------|
      right            direction

e|--------------------------------------|
B|--------------------------------------|
G|---------------------55555555555555---|
D|--66666666666666-----55555555555555---|  
A|--66666666666666-----33333333333333---|
E|--44444444444444----------------------|
     I’ve made my       decision,Point me to the 

e|--------------------------------------|
B|--------------------------------------|
G|---------------------55555555555555---|
D|--66666666666666-----55555555555555---|  
A|--66666666666666-----33333333333333---|
E|--44444444444444----------------------|
     right               direction


                                   Guitar 2
e|---------------------------| |----------------------|                                        
B|---------------------------| |----------------------|                                            
G|-55X5X5X55X555X55X555------| |-11b-12b-13b-15b-17b--|                                      
D|-XXXXXXXXXXXXXXXXXXXX------| |----------------------|  (2x)                                              
A|-33X3X3X33X333X33X333------| |----------------------|                                            
E|---------------------------| |----------------------|  

-------
Bridge | 
-------

e|--------------------------------------------------|
B|--------------------------------------------------|
G|--------------------------------------------------|
D|--------------------------------------------------|  
A|-00-6-00-5-00-3-00-2-00-333-----------------------|
E|-00-4-00-3-00-1-00-0-00-111-----------------------|
   So here I am


e|--------------------------------------------------|
B|--------------------------------------------------|
G|--------------------------------------------------|
D|--------------------------------------------------|  
A|-00-6-00-5-00-3-00-2-00-333-----------------------|
E|-00-4-00-3-00-1-00-0-00-111-----------------------|

  To my last stand


e|--------------------------------------------------|
B|--------------------------------------------------|
G|--------------------------------------------------|
D|--------------------------------------------------|  
A|-00-6-00-5-00-3-00-2-00-333-----------------------|
E|-00-4-00-3-00-1-00-0-00-111-----------------------|


   I’m tired to fall


e|--------------------------------------------------|
B|--------------------------------------------------|
G|--------------------------------------------------|
D|--------------------------------------------------|  
A|-00-6-00-5-00-3-00-2-00-333-----------------------|
E|-00-4-00-3-00-1-00-0-00-111-----------------------|

   I’m tired to crawl


e|--------------------------------------------------|
B|--------------------------------------------------|
G|--------------------------------------------------|
D|--------------------------------------------------|  
A|-00-6-00-5-00-3-00-2-00-333-----------------------|
E|-00-4-00-3-00-1-00-0-00-111-----------------------|

It’s my goodbye To one and all

e|--------------------------------------------------|
B|--------------------------------------------------|
G|--------------------------------------------------|
D|--------------------------------------------------|  
A|-00-6-00-5-00-3-00-2-00-333-----------------------|
E|-00-4-00-3-00-1-00-0-00-111-----------------------|


Just like before Away from you


--------
Chorus: |
--------

Clean ung part dito

e|--44444444444444-----33333333333333333---|
B|--44444444444444-----44444444444444444---|
G|--55555555555555-----55555555555555555---|
D|--66666666666666-----55555555555555555---|  
A|--66666666666666-----33333333333333555---|
E|--44444444444444-------------------------|
       I need your     attention,Point me to the 

(With distortion ulit)
                                           
e|--------------------------------------|
B|--------------------------------------|
G|---------------------55555555555555---|
D|--66666666666666-----55555555555555---|  
A|--66666666666666-----33333333333333---|
E|--44444444444444----------------------|
      right            direction

e|--------------------------------------|
B|--------------------------------------|
G|---------------------55555555555555---|
D|--66666666666666-----55555555555555---|  
A|--66666666666666-----33333333333333---|
E|--44444444444444----------------------|
     I’ve made my       decision,Point me to the 

e|--------------------------------------|
B|--------------------------------------|
G|---------------------55555555555555---|
D|--66666666666666-----55555555555555---|  
A|--66666666666666-----33333333333333---|
E|--44444444444444----------------------|
     right               direction


e|-----------------------------------------|
B|-----------------------------------------|
G|---------------------55555555555555555---|
D|--66666666666666-----55555555555555555---|  
A|--66666666666666-----33333333333333555---|
E|--44444444444444-------------------------|
       I need your     attention,Point me to the 
                                           
e|--------------------------------------|
B|--------------------------------------|
G|---------------------55555555555555---|
D|--66666666666666-----55555555555555---|  
A|--66666666666666-----33333333333333---|
E|--44444444444444----------------------|
      right            direction




For comments send me a message in Friendster. 

E-mail add 1: Walterfdelacruz@yahoo.com
E-mail add 2: Michaelfdelacruz@yahoo.com 

And u Can also add me as your friend Or send me a testimonial.hehehe
God bless!

If you have time, Visit my website and leave a message at

www.geocities.com/walterfdelacruz

Thanks.
Rock oUt.
Walter Rocks Ultimate Guitar!


P.S senxa na kung may mga mali.. Di kase ako masyado nagtatab ng mga rock.
hehehe. Pero sana magustuhan nyo pa din. 
Suggest correction
Creating personal tab
Creating personal tab
You can edit any tab online and save it as your Personal.

You can edit, replace or remove any tab part or add personal notes – all changes will be seen only by you.

Personal tabs can be accessed anytime from any device, even offline.
Learn more »
comments
print report bad tab
18 comments total. Showing first comments.
0 reply
No_Falter08 2,414 Jun 11, 2006 11:48 PM

halos preho lng tyo ng kpa..kta q mga tab m,ouro 5 star!!wtf??hehe..ok

0 reply
No_Falter08 2,414 Jun 11, 2006 11:51 PM

pero nka pang hihinala kc may vote kaagad ng ganyang karami....hay!!
qw ata ng-ra2te eh....wtf??

0 reply
No_Falter08 2,414 Jun 13, 2006 12:59 AM

:p ang blis ah

guest
You may want to rate the tab now too:
select rating
Wanna post a correction for this tab? Suggest correction