Oops, an error
Loading. Please wait.

Misterio bass

version 2
version 2

Whole song

3,733 views 6 this week
1 commentread comment
1 2 3 4 5
1 last vote to show rating
add to favorites
×
Save as Personal and add changes to this tab that will be seen only by you. Learn more ›
×
You can save this tab as Personal to edit and correct it or add notes. All changes will be seen only by you. Learn more »
launch autoscroll
font size
0
reset
guitar tuner
edit
Autoscroll
slow
fast
+/-
esc
set tempo
stop
Misterio by Slapshock

Intro(2x): (listen carefully to the intro and you can hear the bass like this:)
G------------------------------------------------------------------------------|
D------------------------------------------------------------------------------|
A-0h5553h53(4x)----11111101010101(2X)------------------------------------------|
D------------------------------------------------------------------------------|

Verses:(it sounds hard in the song but its only simple)
 Tumatawag, Naghihintay............/Lumilikod papalayo..........
G-----------------------------------------------------------------------------|
D-----------------3------3------3------3--------------------------------------|
A-------------111----111----111----111----------------------------------------|
D--000(8x)--------------------------------------------------------------------|

Pre Chorus: (this part is pretty fast so listen carefully to the music)
Nagtataka kung bakit ba nag-iisa.........
G------------------------------------------------------------------------------|
D------------------------------------------------------------------------------|
A--55555535353535(2x)---11111101010101(2x)-------------------------------------|
D------------------------------------------------------------------------------|

G-----------------------------------------------------------------------------|
D-----------------------------------------------------------------------------|
A--55555535353535(2x)---11111101010101--1111110101111-------------------------|
D-----------------------------------------------------------------------------|

Chorus:(chorus is simple so u can add scales the would fit this part if u want)
Nababawi and lumbay...............Dahil sa'yo, dahil sa'yo................
G---------------------------------------------------------------------------|
D---------------------------------------------------------------------------|
A---1--3---------111-111--3-33333----1--3------------111-111--3-3333--------|
D-0------000-000-------------------0--------000-000-------------------------|

G-----------2-5-------------------------------------------------------------|
D-------3-5-----------------------------------------------------------------|
A---3h5---------------------------------------------------------------------|
D----------------0----------------------------------------------------------|
(its the same in Verse until Chorus and then do this)

Bridge:
Tunay nga'ba ang misterio.........../Ako'y nababalot sa'yo......................
G------------------------------------------------------------------------------|
D------------------------------------------------------------------------------|
A------------------------------------------------------------------------------|
D--000-00-0-00-230(10x)---------0-----0----320-00000-00-023(3x)----------------|

G---------------------------------------------------------------------------|
D---------------------------------------------------------------------------|
A--1--333-------------------------------------------------------------------|
D---------0-----------------------------------------------------------------|
(repeat chorus then outro)

Outro:
G-----------------------------------------------------------------------------|
D-----------------------------------------------------------------------------|
A-----------------------------------------------------------------------------|
D--000(16x)---------0------------------0---------------0----------------------|

_________________________________________________________________________________________________
If u have some comment or find something wrong, mail at my email address or add me in
friendster:tom_rocker28@hotmail.com. Listen to the music carefully so that you'll hear the sweet
sound of the bass^_^.

Legends:
h-hammer
(2x)-its the number of times you have to repeat the part its the same in other numbers inside  the
brackets with x mark like this (16x).(common sense please.)
Suggest correction
Creating personal tab
Creating personal tab
You can edit any tab online and save it as your Personal.

You can edit, replace or remove any tab part or add personal notes – all changes will be seen only by you.

Personal tabs can be accessed anytime from any device, even offline.
Learn more »
Give kudos to tab author, rate the tab!
1 2 3 4 5
comments
print report bad tab
1 comment total.
0 reply
rhyezkie 800 May 27, 2008 10:00 AM

Hey dude,,

do you have a bass tab of "Hindi Ako Bakla" by Michael V??

guest
You may want to rate the tab now too:
select rating
Wanna post a correction for this tab? Suggest correction