Oops, an error
Loading. Please wait.

Satellite Kid tab

version 4
version 4

Whole song

161 views 1 this week
no commentswrite comment
1 2 3 4 5
3 more votes to show rating
add to favorites
×
Save as Personal and add changes to this tab that will be seen only by you. Learn more ›
×
You can save this tab as Personal to edit and correct it or add notes. All changes will be seen only by you. Learn more »
launch autoscroll
font size
0
reset
how to read this tab
guitar tuner
edit
Autoscroll
slow
fast
+/-
esc
set tempo
stop
lugaaw@yahoo.com
Basically 2 Guitars Where Use But Ill tab on a Single 
to make it Easy for u Guyz to read this ! \m/


Tuning drop: D 

backslide  : \
slide down :  /
hammer     : h
dead String :  x
Bend     : b


Intro:

e|-----0-------------0-------0-------------0---------------0-------0-----|
B|-3-----3-----------3-------3--------3------3-------------3-------5-----|
G|---2-----2-------2-------0-------------2-----2---------2-------4-------|(4x)
D|-0-------------3-------2------------0----------------3-------5---------|
A|-----------------------------------------------------------------------|
D|-----------------------------------------------------------------------|


e|-11-----11----10-----10------11-----11-----11----11-----11----11---11-----11---|
B|----12-----------12---------------------------12-----------------------12------|
G|--------------------------------14-------------------------14------------------|
D|-------------------------------------------------------------------------------|
A|-------------------------------------------------------------------------------|
D|-------------------------------------------------------------------------------|

e|-------------------------------------------------------------------------------|
B|-------------------------------------------------------------------------------|
G|--------------------------------------------------------------55---------------|
D|-----------------00-h^1-00----0-h^1-0---xx--------------------55---------------|
A|-----------------00-h^1-00----0-h^1-0---xx--------------------33---------------|
D|--10-\\\\\-------00-h^1-00----0-h^1-0---xx-------------------------------------|

                                                            
Verse 1                                                                
                                                               Let it Ring...
e|--------------------------------------------------------------12-12----0--------|
B|--------------------------------------------------------------12-12----0--------|
G|--------------------------------------------------------------12-12----12-------|
D|-00-h^1-00-------0-h^1-0----xx--------------------------------------------------|
A|-00-h^1-00-------0-h^1-0----xx--------------------------------------------------|
D|-00-h^1-00-------0-h^1-0----xx--------------------------------------------------|
Never turn away coz I will be here for you             Lift your head, open your eyes
I know just how you feel

                                                        Let it Ring.....
e|-------------------------------------------------------------------------------|
B|-------------------------------------------------------------------------------|
G|--------------------------------------------------------------7777-------------|
D|-00-h^1-00--------0-h^1-0----xx-------------------------------7777-------------|
A|-00-h^1-00--------0-h^1-0----xx-------------------------------5555-------------|
D|-00-h^1-00--------0-h^1-0----xx------------------------------------------------|
There's so many things out there for you
And you're strong enough to make it through
I feel the love that comforts you
There's no one there that can put you down



(here comes the best part ! hope u get the timing)
 Pre-chorus
e|---------------------------------------------------------------------------|
B|---------------------------------------------------------------------------|
G|--777---000----7\\\------------------------------7-\\\---------------------|
D|--777---000----7\\\---------1-1-//-3-//-5----0---7-\\\---------------------|
A|--555---000----5\\\---------1-1-//-3-//-5----0---5-\\\---------------------|
D|----------------------------1-1-//-3-//-5----0-----------------------------|
                   Feel my pain               Diggin' inside my vein


e|---------------------------------------------------------------------------|
B|---------------------------------------------------------------------------|
G|------------------------------------------------7\\\-----------------------|
D|-----------1-1-//-3-//-5-------0---3//5----00---7\\\-----------------------|
A|-----------1-1-//-3-//-5-------0---3//5----00---5\\\-----------------------|
D|-----------1-1-//-3-//-5-------0---3//5----00------------------------------|
            Makes me want        Makes me want to define
                

e|---------------------------------------------------------------------------|
B|---------------------------------------------------------------------------|
G|--------------------------------7-\\\--------------------------------------|
D|-----------1-1-//-3-//-5----0---7-\\\--------------------------------------|
A|-----------1-1-//-3-//-5----0---5-\\\--------------------------------------|
D|-----------1-1-//-3-//-5----0----------------------------------------------|
               What I feel for you

 
( Figured it Out GUyz ! Its easy )                
  Chorus
e|-------------------------------------------------------------------------------|
B|-------------------------------------------------------------------------------|
G|-------------------------777------10-10-10--10-10--00--77-------33-----55--00--|
D|---1-1-///-3///5---0-----777------10-10-10--10-10--00--77-------33-----55--00--|
A|---1-1-///-3///5---0-----555------8--8---7--8--8---00--55-------11-----33--00--|
D|---1-1-///-3///5---0-----------------------------------------------------------|
                           Boy you're there to touch the sky
                                   No need to wonder why
                                           I want to disappear so I can be with you


e|-------------------------------------------------------------|
B|-------------------------------------------------------------|
G|-----------777------10-10-10--10-10--00--77-------33-----55--|
D|-----0-----777------10-10-10--10-10--00--77-------33-----55--|
A|-----0-----555------8--8---7--8--8---00--55-------11-----33--|
D|-----0-------------------------------------------------------|
           I know it eats you up
                    I'm here to lift you up
                           There's something more to life
                                     And this is all for you
Verse 2
(do the Pattern on Verse 1)

Never hold your breath, breathe it in and breathe it out
Please don't hurt yourself
You're there to prove yourself to them


Sometimes I feel that I put you down
Try to scream at me so I hear you now
I will make it up like I always say
I will come to you on a perfect day


:Same Pattern:
 (prechorus)
(+chorus+)(2x)

Bridge

(Drums + Adliv) 

e|---------------------------------------------------------------------------|
B|-----3------3-b------3------3///-4-b---------------------------------------|
G|--------2----------------2-------------------------------------------------|(2x)
D|---------------------------------------------------------------------------|
A|---------------------------------------------------------------------------|
D|---------------------------------------------------------------------------|
There are so many times I know you feel
Life you had enough of this life
There's always a light on at the end of the tunnel
For you to be all right
And your exhausted smile is a sign
Of being left all alone
How I wish I could be there to pick you up
But this is just a song that


e|---------------------------------------------------------------------------|
B|---------------------------------------------------------------------------|
G|---------------------------------------------------------------------------|(2x)
D|-111----0------------------------------------------------------------------|
A|-111----0------------------------------------------------------------------|
D|-111----0------------------------------------------------------------------|
I sing for you
To get you through
This crooked life
So let me


Outro :
e|---------------------------------------------------------------------------|
B|---------------------------------------------------------------------------|
G|---------------------------------------------------------------------------|(2x)
D|-0--1--3-----000-----------------------------------------------------------|
A|-0--1--3-----000-----------------------------------------------------------|
D|-0--1--3-----000-----------------------------------------------------------|
I'm here for you and this is true
I will take you
I will be around
I'm here for you and this is true
I will take you

(+chorus+)



e|---------------------------------------------------------------------------|
B|---------------------------------------------------------------------------|
G|-----------------------777-------------------------------------------------|
D|--0--3--5--------------777-------------------------------------------------|
A|--0--3--5--------------555-------------------------------------------------|
D|--0--3--5--------------000-------------------------------------------------|
  (do this(5x)  then  ....^



Wag panay kopya sa TAB rate nyo naman Plss...salamat lugaaw@yahoo.com
KATAMAD Mag TAB .hehe para ata sa anak Ni jamir itong sattelite KId ! 

            
            
Suggest correction
Creating personal tab
Creating personal tab
You can edit any tab online and save it as your Personal.

You can edit, replace or remove any tab part or add personal notes – all changes will be seen only by you.

Personal tabs can be accessed anytime from any device, even offline.
Learn more »
Give kudos to tab author, rate the tab!
1 2 3 4 5
comments
print report bad tab
guest
You may want to rate the tab now too:
select rating
Wanna post a correction for this tab? Suggest correction