Oops, an error
Loading. Please wait.

Sigaw tab

4,676 views 1 this week
2 commentsread comments
1 2 3 4 5
2 more votes to show rating
add to favorites
×
Save as Personal and add changes to this tab that will be seen only by you. Learn more ›
×
You can save this tab as Personal to edit and correct it or add notes. All changes will be seen only by you. Learn more »
launch autoscroll
font size
0
reset
how to read this tab
guitar tuner
edit
Autoscroll
slow
fast
+/-
esc
set tempo
stop
Author
                                 

                             


Slapshock(Sigaw)
By:Jerald Fidel                               

                           
not 100% correct!!!!!


INTRO
e   --------------------------------------|
b   --------------------------------------|
g   --77-88-77-333-55555------------------|
d   --------------------------------------|        3x
a   --55-66-55-111-33333------------------|
d   --------------------------------------|


e   --------------------------------------|
b   --------------------------------------|
g   --77-88-77--------14-14-14------------|
d   ------------------12-12-12------------|       let ring
a   --55-66-55--------12-12-12------------|
d   ------------------12-12-12------------|

VERSE

Sumikat na ang……………. araw
e   -----------------------------------------|
b   -----------------------------------------|
g   --777777777777777777-33333333-55555555---|
d   -----------------------------------------|       palm mute
a   --555555555555555555-11111111-33333333---|
d   -----------------------------------------|

Madilim pa rin nasa paligid mo
e   --------------------------------------------|
b   --------------------------------------------|
g   --777777777777777777-33333333-555555--------|
d   --------------------------------------------|       palm mute
a   --555555555555555555-11111111-333333--8-7-5-|
d   --------------------------------------------|

Hawiin ang ulap
e   -----------------------------------------|
b   -----------------------------------------|
g   --777777777777777777-33333333-55555555---|
d   -----------------------------------------|       palm mute
a   --555555555555555555-11111111-33333333---|
d   -----------------------------------------|

at tanawin mo ang umaga mo
e   -------------------------------------------|
b   -------------------------------------------|
g   --777777777777777777-33333333-555555-------|
d   -------------------------------------------|       palm mute
a   --555555555555555555-11111111-333333-8-7-5-|
d   -------------------------------------------|

PRE CHORUS

Buksan mo ang iyong mata ...pawiin mo ang sugat na... bakas ng yong dinadala
e   ------------------------------------------------------------|
b   ------------------------------------------------------------|
g   ------------------------------------------------------------|
d   ------------------------------------------------------------|
a   --5-8-7-8-10-9-7-----5-8-7-8-13-12-10-----5-8-7-8-10-9-7----|
d   ------------------------------------------------------------|

Bakas ng yong dinadala...
e   --------------------------------------|
b   --------------------------------------|
g   --------------------------------------|
d   --------------------------------------|
a   --55555555----------------------------|
d   --------------------------------------|


CHORUS

Sa……………. bawat ……pagikot ng mundo


e   -----------------------------------------------------|
b   -----------------------------------------------------|
g   --77777777-33333333-5555555555555555-----------------|
d   -----------------------------------------------------|
a   --55555555-11111111-3333333333333333-----------------|
d   -----------------------------------------------------|

Akoy kasama mo
e   -----------------------------------------------------|
b   -----------------------------------------------------|
g   --77777777-33333333-5555555555555555-----------------|
d   -----------------------------------------------------|
a   --55555555-11111111-3333333333333333-----------------|
d   -----------------------------------------------------|

sa bawat halik ng tinig mo
e   -----------------------------------------------------|
b   -----------------------------------------------------|
g   --77777777-33333333-5555555555555555-----------------|
d   -----------------------------------------------------|
a   --55555555-11111111-3333333333333333-----------------|
d   -----------------------------------------------------|

Akoy kasama mo
e   -----------------------------------------------------|
b   -----------------------------------------------------|
g   --77777777-33333333-5555555555555555-----------------|
d   -------------------------------------- --------------|
a   --55555555-11111111-3333333333333333-----------------|
d   -----------------------------------------------------|

Verse 2

Pilititing hamunin

e   -----------------------------------------|
b   -----------------------------------------|
g   --777777777777777777-33333333-55555555---|
d   -----------------------------------------|       palm mute
a   --555555555555555555-11111111-33333333---|
d   -----------------------------------------|

Mga lungkot sa salamin
e   -------------------------------------------|
b   -------------------------------------------|
g   --777777777777777777-33333333-555555-------|
d   -------------------------------------------|       palm mute
a   --555555555555555555-11111111-333333-8-7-5-|
d   -------------------------------------------|

Tamis ng pag asa
e   -----------------------------------------|
b   -----------------------------------------|
g   --777777777777777777-33333333-55555555---|
d   -----------------------------------------|       palm mute
a   --555555555555555555-11111111-33333333---|
d   -----------------------------------------|


Unti-unti nang  madarama
e   -------------------------------------------|
b   -------------------------------------------|
g   --777777777777777777-33333333-555555-------|
d   -------------------------------------------|       palm mute
a   --555555555555555555-11111111-333333-8-7-5-|
d   -------------------------------------------|

repeat pre chorus....
repeat chorus.....


BRIDGE

Nalunod sa luha                                 itinapon
e   ------------------------------------------------------|
b   ------------------------------------------------------|
g   --------7-----------------------------3---------------|
d   ------------let ring-------------------------let ring-|    2x
a   --------5-----------------------------1---------------|
d   ------------------------------------------------------|


Apoy sa puso moy iyong isigaw…

e   -------------------------------------------------------------|
b   -------------------------------------------------------------|
g   -------------------------------------------------------------| palm mute
d   ---0000000000--------- --------------------------------------|
a   ---0000000000------------------------------------------------|
d   ---0000000000------------------------------------------------|

repeat chorus


sana magustuhan nyo
gud luck!!!!!

Slapshock!!!

            
            
Suggest correction
Creating personal tab
Creating personal tab
You can edit any tab online and save it as your Personal.

You can edit, replace or remove any tab part or add personal notes – all changes will be seen only by you.

Personal tabs can be accessed anytime from any device, even offline.
Learn more »
Give kudos to tab author, rate the tab!
1 2 3 4 5
comments
print report bad tab
2 comments total.
0 reply
markchordz 16,994 Sep 01, 2008 01:42 AM

pare kulang ka ng mga riff.

0 reply
jerald13 70 Sep 24, 2008 02:49 PM

inaayos ko na .....

guest
You may want to rate the tab now too:
select rating
Wanna post a correction for this tab? Suggest correction