Oops, an error
Loading. Please wait.

The Day My Thoughts Turned To Murder Tab

269 views 1 this week
no commentswrite comment
1 2 3 4 5
3 more votes to show rating
add to favorites
launch autoscroll
font size
0
reset
how to read this tab
guitar tuner
Autoscroll
slow
fast
+/-
esc
set tempo
stop
Help us to improve Ultimate-Guitar.com Take our survey!
×
Author
Tabbers playing skills
beginner
-------------------------------------------------------------------------------
The Day My Thoughts Turned To Murder - Slapshot
Ignite/Slapshot Split
-------------------------------------------------------------------------------
Tabbed by: axeslash
Email: holmzito@yahoo.com

Tuning: Standard

e|------------------------------------------------------------------|
B|------------------------------------------------------------------|
G|------------------------------------------------------------------|
D|-12--12-9----9--9--9--9--9--9--7--7-10----10--10--10--10--10--10--|
A|-12--12-9----9--9--9--9--9--9--7--7-10----10--10--10--10--10--10--|
E|-10--10-7----7--7--7--7--7--7--5--5--8-----8---8---8---8---8---8--| x6

e|----------------------------------------------------------|
B|--------------------------------9----7--10----10----------|
G|--------------------------------9----7--10----10----9\----|
D|-12--12-------------------------9----7--10----10----9\----|
A|-12--12-2--2--2--2--2--2--2--2--7----5---8-----8----7\----|
E|-10--10-0--0--0--0--0--0--0--0----------------------------|

e|---------------------------------------------------|
B|-------------------------9----7--10----10----------|
G|-------------------------9----7--10----10----9\----|
D|-------------------------9----7--10----10----9\----|
A|-2--2--2--2--2--2--2--2--7----5---8-----8----7\----|
E|-0--0--0--0--0--0--0--0----------------------------| x2

e|-------------------------------------------|
B|-------------------------9----7--10--------|
G|-------------------------9----7--10--------|
D|-------------------------9----7--10--------|
A|-2--2--2--2--2--2--2--2--7----5---8--------|
E|-0--0--0--0--0--0--0--0--------------------|

e|------------------------------------------------------------------|
B|------------------------------------------------------------------|
G|------------------------------------------------------------------|
D|-12--12-9----9--9--9--9--9--9--7--7-10----10--10--10--10--10--10--|
A|-12--12-9----9--9--9--9--9--9--7--7-10----10--10--10--10--10--10--|
E|-10--10-7----7--7--7--7--7--7--5--5--8-----8---8---8---8---8---8--| x4

e|----------------------------------------------------------|
B|--------------------------------9----7--10----10----------|
G|--------------------------------9----7--10----10----9\----|
D|-12--12-------------------------9----7--10----10----9\----|
A|-12--12-2--2--2--2--2--2--2--2--7----5---8-----8----7\----|
E|-10--10-0--0--0--0--0--0--0--0----------------------------|

e|---------------------------------------------------|
B|-------------------------9----7--10----10----------|
G|-------------------------9----7--10----10----9\----|
D|-------------------------9----7--10----10----9\----|
A|-2--2--2--2--2--2--2--2--7----5---8-----8----7\----|
E|-0--0--0--0--0--0--0--0----------------------------| x2

e|------------------------------------------------------|
B|-------------------------9----7--10----10-------------|
G|-------------------------9----7--10----10----9--------|
D|-------------------------9----7--10----10----9--------|
A|-2--2--2--2--2--2--2--2--7----5---8-----8----7--------|
E|-0--0--0--0--0--0--0--0-------------------------------|

e|---------------------------------------------------|
B|---------------------------------------------------|
G|---------------------------------------------------|
D|-----------------------------------------8----7----|
A|-2--2--2--2--2-5----2--2--2-7----2--2--2-8----7----|
E|-0--0--0--0--0-3----0--0--0-5----0--0--0-6----5----|

e|--------------------------------------------------|
B|--------------------------------------------------|
G|--------------------------------------------------|
D|-----------------------------------------8--------|
A|-2--2--2--2--2-5----2--2--2-7----2--2--2-8--------|
E|-0--0--0--0--0-3----0--0--0-5----0--0--0-6--------|

e|---------------------------------------------------|
B|---------------------------------------------------|
G|---------------------------------------------------|
D|-----------------------------------------8----7----|
A|-2--2--2--2--2-5----2--2--2-7----2--2--2-8----7----|
E|-0--0--0--0--0-3----0--0--0-5----0--0--0-6----5----|

e|--------------------------------------------------|
B|--------------------------------------------------|
G|--------------------------------------------------|
D|-----------------------------------------8--------|
A|-2--2--2--2--2-5----2--2--2-7----2--2--2-8--------|
E|-0--0--0--0--0-3----0--0--0-5----0--0--0-6--------|

e|---------------------------------------------------|
B|---------------------------------------------------|
G|---------------------------------------------------|
D|-----------------------------------------8----7----|
A|-2--2--2--2--2-5----2--2--2-7----2--2--2-8----7----|
E|-0--0--0--0--0-3----0--0--0-5----0--0--0-6----5----|

e|--------------------------------------------------|
B|--------------------------------------------------|
G|--------------------------------------------------|
D|-----------------------------------------8--------|
A|-2--2--2--2--2-5----2--2--2-7----2--2--2-8--------|
E|-0--0--0--0--0-3----0--0--0-5----0--0--0-6--------|

e|---------------------------------------------------|
B|---------------------------------------------------|
G|---------------------------------------------------|
D|-----------------------------------------8----7----|
A|-2--2--2--2--2-5----2--2--2-7----2--2--2-8----7----|
E|-0--0--0--0--0-3----0--0--0-5----0--0--0-6----5----|

e|--------------------------------------------------|
B|--------------------------------------------------|
G|--------------------------------------------------|
D|-----------------------------------------8--------|
A|-2--2--2--2--2-5----2--2--2-7----2--2--2-8--------|
E|-0--0--0--0--0-3----0--0--0-5----0--0--0-6--------|

e|------------------------------------------------------------------|
B|------------------------------------------------------------------|
G|------------------------------------------------------------------|
D|-12--12-9----9--9--9--9--9--9--7--7-10----10--10--10--10--10--10--|
A|-12--12-9----9--9--9--9--9--9--7--7-10----10--10--10--10--10--10--|
E|-10--10-7----7--7--7--7--7--7--5--5--8-----8---8---8---8---8---8--| x4

e|----------------------------------------------------------|
B|--------------------------------9----7--10----10----------|
G|--------------------------------9----7--10----10----9\----|
D|-12--12-------------------------9----7--10----10----9\----|
A|-12--12-2--2--2--2--2--2--2--2--7----5---8-----8----7\----|
E|-10--10-0--0--0--0--0--0--0--0----------------------------|

e|---------------------------------------------------|
B|-------------------------9----7--10----10----------|
G|-------------------------9----7--10----10----9\----|
D|-------------------------9----7--10----10----9\----|
A|-2--2--2--2--2--2--2--2--7----5---8-----8----7\----|
E|-0--0--0--0--0--0--0--0----------------------------| x6

e|--------------------------------------------------------|
B|-------------------------9----7--10----10--10--10--9----|
G|-------------------------9----7--10----10--10--10--9----|
D|-------------------------9----7--10----10--10--10--9----|
A|-2--2--2--2--2--2--2--2--7----5---8-----8---8---8--7----|
E|-0--0--0--0--0--0--0--0---------------------------------|


| /  slide up
| \  slide down
| h  hammer-on
| p  pull-off
| ~  vibrato
| +  harmonic
| x  Mute note
===============================================================================
Suggest correction
Give kudos to tab author, rate the tab!
1 2 3 4 5
comments
print report bad tab
guest
You may want to rate the tab now too:
select rating
Wanna post a correction for this tab? Suggest correction