Oops, an error
Loading. Please wait.

Anastasia Intro Tab

3,788 views 12 this week
no commentswrite comment
1 2 3 4 5
x 11
add to favorites
launch autoscroll
font size
0
reset
how to read this tab
guitar tuner
Autoscroll
slow
fast
+/-
esc
set tempo
stop
Help us to improve Ultimate-Guitar.com Take our survey!
×
Author
Tuning
D# G# C# F# A# D#
-------------------------------------------------------------------------------
                             Anastasia Intro - Slash
-------------------------------------------------------------------------------
Tabbed by:Alan Sahinovic

E-mail:sahinovicalan@gmail.com

Tuning:Eb,Ab,Db,Gb,Bb,Eb


Im only writing the intro because I couldn't find one that was 100% accurate in here.

 

e|----------1-------------------1----------|----------1------------------1-----------------|
B|--------3---3---------------3---3--------|--------3---3--------------3---3---------------|
G|------2-------2---2-------2-------2---2--|------3-------3---3------3-------3---3---------|
D|---0------------0------0------------0----|-----------------------------------------------|
A|-----------------------------------------|---1------------1------1-----------1-----------|
E|-----------------------------------------|-----------------------------------------------|

e|--------1------------|----------1------------1----|-------------------|--0---------------|
B|------3---3----------|--------3------------3------|-------1-----------|----1-----1-------|
G|----0-------0---0----|------0------------0--------|-----0---0---------|------0-----0-----|
D|---------------------|----------------------------|---2-------2---2---|--------------2---|
A|--2-----------2------|----------------2-----------|-3-----------3-----|--------3-------3-|
E|---------------------|---3------------------------|-------------------|------------------|

eb|---------0-------------0----|-----------------------------------------------------|
Bb|-------2------------2-------|---5--5--5s3---2-------------------------------------|
Gb|-----0-----------0----------|-----------------------------------------------------|
Db|----------------------------|---5--5--5s3---2-------------------------------------|
Ab|---4----------0-------------|-----------------------------------------------------|
Eb|----------------------------|-----------------------------------------------------|

e|---------1------------|---------1-----------1-----|----------1------------0--------|
B|-------3---3----------|-------3-----------3-------|--------3------------2----------|
G|-----2-------2---2----|-----2-----------2---------|------3------------2------------|
D|---0-----------0------|---0-----------------------|--------------------------------|
A|----------------------|--------------3------------|---1------------0---------------|
E|----------------------|---------------------------|--------------------------------|

e|---------0---------------|-------------------------|-----------0--------------------------|
B|-------1---------0--3----|---------3-----------1---|---------0---0------------------------|
G|-----0---------0---------|-------3-----------2-----|-------1-------1-----1---------------0|
D|-------------------------|-----3-----------3-------|-----2-------------2--------2------2--|
A|---3---------------------|---1---------------------|---2----------------------2------0----|
E|------------3------------|--------------1----------|-0-----------------------------0------|

e|--------0--3--3--3---1h3p1h0-1p0-----0---1p0h1p0h1p0h1p0h1p0h1p0h1p0h1p0h1p0h1p0----------|
B|-----2---------------------------2--------------------------------------------------------|
G|-----------------------------------2------------------------------------------------------|
D|------------------------------------------------------------------------------------------|
A|------------------------------------------------------------------------------------------|
E|------------------------------------------------------------------------------------------|



************************************

| /   slide up
| \   slide down
| h   hammer-on
| p   pull-off
| ~   vibrato
| +   harmonic
| x   Mute note
| b   Bend
| pb  Pre-bend
| br  Bend release
| pbr Pre-bend release
| brb Bend release bend

************************************
Suggest correction
comments
print report bad tab
guest
You may want to rate the tab now too:
select rating
Wanna post a correction for this tab? Suggest correction