Oops, an error
Loading. Please wait.

Anastasia Tab

version 3
version 3

Whole song

Interactive

10,676 views 18 this week
no commentswrite comment
1 2 3 4 5
please rate
add to favorites
launch autoscroll
font size
0
reset
how to read this tab
guitar tuner
Tab Pro tools
  • play this tab
  • loop segment
  • change instrument
  • show fretboard
  • metronome
×
Best way to learn
"Anastasia"
Autoscroll
slow
fast
+/-
esc
set tempo
stop
Difficulty
Tuning
intermediate
D# G# C# F# A# D#
Half Step Tuning

On the part with the 5-0 and 3-0 pull-offs, bend the string a bit.  I didnt want 
to annotate that in the tabs.

E----13-12-13-10-13-12-13|----13-12-13-10-13-12-13|----13-12-13-10-13-12-13|
B-10---------------------|-10---------------------|-11---------------------|
G------------------------|------------------------|------------------------|
D------------------------|------------------------|------------------------|
A------------------------|------------------------|------------------------|
E------------------------|------------------------|------------------------|

E----13-12-13-10-13-12-13|----15-13-15-12-15-13-15|----15-13-15-12-15-13-15|
B-11---------------------|-12---------------------|-12---------------------|
G------------------------|------------------------|------------------------|
D------------------------|------------------------|------------------------|
A------------------------|------------------------|------------------------|
E------------------------|------------------------|------------------------|

E----15-12-15-13-15-12-15|----15-12-15-13-15-12-15|----17-15-17-12-17-15-17|
B-13---------------------|-13---------------------|-14---------------------|
G------------------------|------------------------|------------------------|
D------------------------|------------------------|------------------------|
A------------------------|------------------------|------------------------|
E------------------------|------------------------|------------------------|

E----17-15-17-12-17-15-17|----17-13-17-12-17-13-17|----17-13-17-12-17-13-17|
B-14---------------------|-15---------------------|-15---------------------|
G------------------------|------------------------|------------------------|
D------------------------|------------------------|------------------------|
A------------------------|------------------------|------------------------|
E------------------------|------------------------|------------------------|

E----18-17-18----17-15-17|----15-14-15----15-14-15|----13-12-13----13-12-13|
B-15----------14---------|-13-----------12--------|-11------------10-------|
G------------------------|------------------------|------------------------|
D------------------------|------------------------|------------------------|
A------------------------|------------------------|------------------------|
E------------------------|------------------------|------------------------|

E----12-11-12----12-11-12|------------------------|------------------------|
B-9----------------------|-10-13-12-13--9-12-10-12|--8-12-10-12----10-9-10-|
G--------------9---------|------------------------|--------------7---------|
D------------------------|------------------------|------------------------|
A------------------------|------------------------|------------------------|
E------------------------|------------------------|------------------------|

E------------------------|------------------------|------------------------|
B--6-10-9-10-----8-7-8---|--7b8r---5-5------------|-15b17------------------|
G--------------5---------|------------------------|------------------------|
D------------------------|------------------------|------------------------|
A------------------------|------------------------|------------------------|
E------------------------|------------------------|------------------------|

E------------------------|----------------------X3| or X4 withough ending
B------------------------|------------------------| solo
G------------------------|------------------------|
D------------------------|------------------------|
A------------------------|------------------------|
E--5p0--5p0--3h5--0h5----|---0h5--3p0--3p0--3h5---|

E---5---5----------------|------------------------||
B---5---5--------------5-|------------------------||
G----------7b1/2-5--7----|--7b1/2---5-------------||
D------------------------|------------7-5-5h7--5h7||
A------------------------|------------------------||
E------------------------|------------------------||

E------------------------|----------------------X7||-----------------------|
B------------------------|------------------------||-----------------------|
G------------------------|------------------------||-----------------------|
D------------------------|------------------------||-----------------------|
A------------------------|------------------------||----------3b1/2--------|
E--5--5--5--5--3h5--5--5-|-5--5--5--3--5--3--3h5--||--5--5-----------------|

E------------------------|----------------------X7||-----------------------|
B------------------------|------------------------||-----------------------|
G------------------------|------------------------||-------------7---------|
D------------------------|------------------------||-------------7---------|
A------------------------|------------------------||-------------5---------|
E--5--5--5--5--3h5--5--5-|-5--5--5--3--5--3--3h5--||--5--5-----------------|

E----5---------5---------|--5--5----5--5----5--5--|
B----6---------6---------|--6--6----6--6----6--6--|
G----7---------7---------|--7--7----7--7----7--7--|
D----7---------7---------|--7--7----7--7----7--7--|
A----5---------5---------|--5--5----5--5----5--5--|
E------------------------|------------------------|


E----6---------6---------|--6--6----6--6----6--6--|
B----6---------6---------|--6--6----6--6----6--6--|
G----7---------7---------|--7--7----7--7----7--7--|
D----8---------8---------|--8--8----8--8----8--8--|
A----8---------8---------|--8--8----8--8----8--8--|
E----6---------6---------|--6--6----6--6----6--6--|

E----3---------3---------|--3--3----3--3----3--3--|
B----3---------3---------|--3--3----3--3----3--3--|
G----3---------3---------|--3--3----3--3----3--3--|
D----5---------5---------|--5--5----5--5----5--5--|
A----5---------5---------|--5--5----5--5----5--5--|
E----3---------3---------|--3--3----3--3----3--3--|

E----3---------3---------|--3--3----3--3----3--3--|
B----5---------5---------|--5--5----5--5----5--5--|
G----5---------5---------|--5--5----5--5----5--5--|
D----5---------5---------|--5--5----5--5----5--5--|
A----3---------3---------|--3--3----3--3----3--3--|
E------------------------|------------------------|

E----5---------5---------|--5--5----5--5----5--5--|
B----6---------6---------|--6--6----6--6----6--6--|
G----7---------7---------|--7--7----7--7----7--7--|
D----7---------7---------|--7--7----7--7----7--7--|
A----5---------5---------|--5--5----5--5----5--5--|
E------------------------|------------------------|

E----6---------6---------|--6--6----6--6----6--6--|
B----6---------6---------|--6--6----6--6----6--6--|
G----7---------7---------|--7--7----7--7----7--7--|
D----8---------8---------|--8--8----8--8----8--8--|
A----8---------8---------|--8--8----8--8----8--8--|
E----6---------6---------|--6--6----6--6----6--6--|

E----3---------3---------|--3--3----3--3----3--3--|
B----5---------5---------|--5--5----5--5----5--5--|
G----5---------5---------|--5--5----5--5----5--5--|
D----5---------5---------|--5--5----5--5----5--5--|
A----3---------3---------|--3--3----3--3----3--3--|
E------------------------|------------------------|

E----0---------0---------|--0--0----0--0----0--0--|
B----1---------1---------|--1--1----1--1----1--1--|
G----2---------2---------|--2--2----2--2----2--2--|
D----2---------2---------|--2--2----2--2----2--2--|
A----0---------0---------|--0--0----0--0----0--0--|
E------------------------|------------------------|

comments
We did not receive enough feedback on this tab! Please rate:
print report bad tab
1 2 3 4 5
I want to post or [tab]
guest
You may want to rate the tab now too:
select rating
Please do not post tabs as comments. Select "correction" instead!