Oops, an error
Loading. Please wait.

Anastasia Tab

version 4
version 4

Whole song

Interactive

2,956 views 33 this week
3 commentsread comments
1 2 3 4 5
accurate
x 3
add to favorites
launch autoscroll
font size
0
reset
how to read this tab
guitar tuner
Tab Pro tools
  • play this tab
  • loop segment
  • change instrument
  • show fretboard
  • metronome
Autoscroll
slow
fast
+/-
esc
set tempo
stop
Contributor
Difficulty
intermediate
-------------------------------------------------------------------------------
                             Anastasia intro - Slash
-------------------------------------------------------------------------------
Tabbed by:Leoni Flower Finocchiaro
E-mail:marketingf@gmail.com

Tuning:standard

e|-------1---------------1---------------1---------------1-------------------|
B|-----3---3-----------3---3-----------3---3-----------3---3-----------------|
G|---2-------2---2---2-------2---2---3-------3---3---3-------3----3----------|
D|-0-----------0---0-----------0---------------------------------------------|
A|---------------------------------1-----------1---1------------1------------|
E|---------------------------------------------------------------------------|

e|---------1------------1-------1---------------------------------------------|
B|-------3--3----------3------3----------5------------- 5 --------------------|
G|-----0-----0---0---0------0----------5---5----------5-- 5-------------------|
D|-----------------------------------5-------5---5--5------5---5--------------|
A|-2-----------2---2---------------3-----------3---3---------3----------------|
E|------------------------3---------------------------------------------------|

e|-------------------------------------------------1---------------1---------|
B|-----------5--------5------5--5--5--3--2-------3---3-----------3-----------|
G|--------6---------6--------------------------2-------2---2---2-------------|
D|-----7----------7----------5--5--5--3--2---0-----------0---0---------------|
A|--4----------0-------------------------------------------------------------|
E|---------------------------------------------------------------------------|

e|--------1---------3-------3----------0--------------------------1----------- |
B|------3---------3-------3----------1----------0--------3------1--------------|
G|----2---------3-------3----------0----------0--------3------2----------------|
D|------------------------------------------0--------3-------------------------|
A|--3-------1---------0--------3-------------------1---------------------------|
E|---------------------------------------3------------------1------------------|

e|------------0------------------------0--3--3--3--1-3-1-0-1-0-----0-1-0-1-0-1....-|
B|----------0---0----------0---------2-------------------------2------------------ |
G|--------1-------1----1-----------0-----------------------------2---------------- |
D|------2------------------------2---------------------------------------------    |
A|----2------------------2-----0------------------------------------------------   |
E|--0----------------0---------------------------------------------------------    |




************************************

| /   slide up
| \   slide down
| h   hammer-on
| p   pull-off
| ~   vibrato
| +   harmonic
| x   Mute note
| b   Bend
| pb  Pre-bend
| br  Bend release
| pbr Pre-bend release
| brb Bend release bend

************************************
comments
We did not receive enough feedback on this tab! Please rate:
print report bad tab
1 2 3 4 5
3 comments total.
0 reply
marcula1 wrote on September 28 2014, 08:11 am, edited at 08:12 am

e|--------1---------1-------0----------0-------------------------------------- |B|------3---------3-------2----------1----------0--------3--------1------------|G|----2---------3-------2----------0----------0--------3--------2--------------|D|------------------------------------------0--------3--------3----------------|A|--3-------1---------0--------3-------------------1---------------------------|E|---------------------------------------3------------------1------------------|

0 reply
marcula1 wrote on September 28 2014, 08:12 am

e|--------1---------1-------0----------0-------------------------------------- |
B|------3---------3-------2----------1----------0--------3--------1------------|
G|----2---------3-------2----------0----------0--------3--------2--------------|
D|------------------------------------------0--------3--------3----------------|
A|--3-------1---------0--------3-------------------1---------------------------|
E|---------------------------------------3------------------1------------------|

0 reply
marcula1 wrote on September 28 2014, 08:15 am

e|--------1---------1-------0----------0-------------------------------------- |
B|------3---------3-------2----------1----------0--------3--------1------------|
G|----2---------3-------2----------0----------0--------3--------2--------------|
D|------------------------------------------0--------3--------3----------------|
A|--3-------1---------0--------3-------------------1---------------------------|
E|---------------------------------------3------------------1------------------|

I want to post or [tab]
guest
You may want to rate the tab now too:
select rating
Please do not post tabs as comments. Select "correction" instead!