Oops, an error
Loading. Please wait.

Anastasia Tab

version 1
version 1

Whole song

  • Some parts made simpler, ends in the middle of the... Show more

Interactive

  • Its not my original creation. I addjust up the RSE... Show more
  • This version shows the correct chords and more nat... Show more
689,645 views 2,445 this week
12 commentsread comments
1 2 3 4 5
excellent!
x 126
add to favorites
launch autoscroll
font size
0
reset
how to read this tab
guitar tuner
Autoscroll
slow
fast
+/-
esc
set tempo
stop
Help us to improve Ultimate-Guitar.com Take our survey!
×
Contributor
Difficulty
Tuning
LukeWard 474
intermediate
D# G# C# F# A# D#


eb|----------------------------|----------------------------|
Bb|-----------6----------------|-----------6----------------|
Gb|--------7-----7-------------|--------7-----7-------------|
Db|-----7-----------7-----7----|-----7-----------7-----7----|
Ab|--5-----------------5-------|--5-----------------5-------|
Eb|----------------------------|----------------------------|

eb|-----------1----------------|-----------1----------------|
Bb|--------3-----3-------------|--------3-----3-------------|
Gb|-----3-----------3-----3----|-----3-----------3-----3----|
Db|----------------------------|----------------------------|
Ab|--1-----------------1-------|--1-----------------1-------|
Eb|----------------------------|----------------------------|

eb|-----------1----------------|-----------1-----------1----|
Bb|--------3-----3-------------|--------3-----------3-------|
Gb|-----0-----------0-----0----|-----0-----------0----------|
Db|----------------------------|----------------------------|
Ab|--2-----------------2-------|--------------2-------------|
Eb|----------------------------|--3-------------------------|

eb|----------------------------|----------------------------|
Bb|-----------5-----------5----|----------------------------|
Gb|--------5-----5-------------|--5--------5--0-----0-------|
Db|-----5-----------5----------|-----5-----------2----------|
Ab|--3-----------------3-------|--------3--------------3----|
Eb|----------------------------|----------------------------|

eb|----------------------------|
Bb|-----------5-----------5----|
Gb|--------6-----------6-------|
Db|-----5-----------5----------|
Ab|--4-------------------------|
Eb|--------------5-------------|

eb|----------------------------------------------------|
Bb|--5--------5--------5-----3-----------2-------------|
Gb|----------------------------------------------------|
Db|--5--------5--------5-----3-----------2-------------|
Ab|----------------------------------------------------|
Eb|--3--------3----------------------------------------|

eb|----------------------------|-----------------------0----|
Bb|-----------6----------------|-----------6--------3-------|
Gb|--------7-----7-------------|--------7--------2----------|
Db|-----7-----------7-----7----|-----7----------------------|
Ab|--5-----------------5-------|--5-----------3-------------|
Eb|----------------------------|----------------------------|

eb|-----------1-----------0----|----------------------------|
Bb|--------3-----------2-------|-----------5----------------|
Gb|-----3-----------2----------|--------5--------------4----|
Db|----------------------------|-----5--------------5-------|
Ab|--1-----------0-------------|--3--------------5----------|
Eb|----------------------------|--------------3-------------|

eb|----------------------------|-----------------0----------|
Bb|-----------3-----------1----|--------------0-----0-------|
Gb|--------3-----------2-------|-----------1-----------1----|
Db|-----3-----------3----------|--------2-------------------|
Ab|--1-------------------------|-----2----------------------|
Eb|--------------1-------------|--0-------------------------|

eb|----------------------------|
Bb|----------------------------|
Gb|-----1-----------------0----|
Db|--2--------2--------2-------|
Ab|--------2--------0----------|
Eb|--------------0-------------|

eb|--------------------------0-----------------------3-----------------------3-----|
Bb|--2-----------------------------------------------------------------------------|
Gb|--------------------------------------------------------------------------------|
Db|--------------------------------------------------------------------------------|
Ab|--------------------------------------------------------------------------------|
Eb|--------------------------------------------------------------------------------|

eb|------------------3-----------------------1--------3-----------1-----------0----|
Bb|--------------------------------------------------------------------------------|
Gb|--------------------------------------------------------------------------------|
Db|--------------------------------------------------------------------------------|
Ab|--------------------------------------------------------------------------------|
Eb|--------------------------------------------------------------------------------|

eb|-------1-----------------------1----|
Bb|------------------------------------|
Gb|------------------------------------|
Db|------------------------------------|
Ab|------------------------------------|
Eb|------------------------------------|

eb|--0-------------------------------------------------|
Bb|--------2-----------5-----------------6--5--6--5----|
Gb|--------------2-----2-------------------------------|
Db|----------------------------------------------------|
Ab|----------------------------------------------------|
Eb|----------------------------------------------------|

eb|----------------------------------------------------|-------|-------|
Bb|--6--5--6--5--6--5--6--5--6--5--6--5--6--5--6--5----|--5----|-------|
Gb|----------------------------------------------------|-------|-------|
Db|----------------------------------------------------|-------|-------|
Ab|----------------------------------------------------|-------|-------|
Eb|----------------------------------------------------|-------|-------|

eb|-----13-12-13-10-13-12-13---|-----13-12-13-10-13-12-13---|
Bb|--10------------------------|--10------------------------|
Gb|----------------------------|----------------------------|
Db|----------------------------|----------------------------|
Ab|----------------------------|----------------------------|
Eb|----------------------------|----------------------------|

eb|-----13-12-13-10-13-12-13---|-----13-12-13-10-13-12-13---|
Bb|--11------------------------|--11------------------------|
Gb|----------------------------|----------------------------|
Db|----------------------------|----------------------------|
Ab|----------------------------|----------------------------|
Eb|----------------------------|----------------------------|

eb|-----15-13-15-12-15-13-15---|-----15-13-15-12-15-13-15---|
Bb|--12------------------------|--12------------------------|
Gb|----------------------------|----------------------------|
Db|----------------------------|----------------------------|
Ab|----------------------------|----------------------------|
Eb|----------------------------|----------------------------|

eb|-----15-12-15-13-15-12-15---|-----15-12-15-13-15-12-15---|
Bb|--13------------------------|--13------------------------|
Gb|----------------------------|----------------------------|
Db|----------------------------|----------------------------|
Ab|----------------------------|----------------------------|
Eb|----------------------------|----------------------------|

eb|-----17-15-17----17-15-17---|-----17-15-17----17-15-17---|
Bb|--14----------17------------|--14----------17------------|
Gb|----------------------------|----------------------------|
Db|----------------------------|----------------------------|
Ab|----------------------------|----------------------------|
Eb|----------------------------|----------------------------|

eb|-----17-13-17----17-13-17---|-----17-13-17----17-13-17---|
Bb|--15----------17------------|--15----------17------------|
Gb|----------------------------|----------------------------|
Db|----------------------------|----------------------------|
Ab|----------------------------|----------------------------|
Eb|----------------------------|----------------------------|

eb|-----18-17-18----17-15-17---|-----15-14-15----15-14-15---|
Bb|--15----------14------------|--13----------12------------|
Gb|----------------------------|----------------------------|
Db|----------------------------|----------------------------|
Ab|----------------------------|----------------------------|
Eb|----------------------------|----------------------------|

eb|-----13-12-13----13-12-13---|-----12-10-12----12-10-12---|
Bb|--11----------10------------|--9-----------x-------------|
Gb|----------------------------|----------------------------|
Db|----------------------------|----------------------------|
Ab|----------------------------|----------------------------|
Eb|----------------------------|----------------------------|

eb|-----8--7--8-----7-----7----|-----7-----7----------------|
Bb|--10----------9-----10------|--8-----10-------10-8--10---|
Gb|----------------------------|--------------7-------------|
Db|----------------------------|----------------------------|
Ab|----------------------------|----------------------------|
Eb|----------------------------|----------------------------|

eb|-----5-----5----------------|
Bb|--6-----8--------8--7--8----|
Gb|--------------5-------------|
Db|----------------------------|
Ab|----------------------------|
Eb|----------------------------|

eb|----------------------------------------------------|--10---|---10-~--|
Bb|--8-----7--6--5-------------------------------------|-------|---------|
Gb|----------------------------------------------------|-------|---------|
Db|----------------------------------------------------|-------|---------|
Ab|----------------------------------------------------|-------|---------|
Eb|----------------------------------------------------|-------|---------|

eb|----------------------------|----------------------------|
Bb|----------------------------|----------------------------|
Gb|----------------------------|----------------------------|
Db|----------------------------|----------------------------|
Ab|----------------------------|----------------------------|
Eb|--5--0--5--0--3--5--0--5----|--0--5--3--0--3--0--3--5----|

eb|----------------------------|----------------------------|
Bb|----------------------------|----------------------------|
Gb|----------------------------|----------------------------|
Db|----------------------------|----------------------------|
Ab|----------------------------|----------------------------|
Eb|--5--0--5--0--3--5--0--5----|--0--5--3--0--3--0--3--5----|

eb|----------------------------|----------------------------|
Bb|----------------------------|----------------------------|
Gb|----------------------------|----------------------------|
Db|----------------------------|----------------------------|
Ab|----------------------------|----------------------------|
Eb|--5--0--5--0--3--5--0--5----|--0--5--3--0--3--0--3--5----|

eb|--------5-----------5-------------------------------|
Bb|--------5-----------5-----------------------5-------|
Gb|--x-----------x-----------7-----5-----7-------------|
Db|-----------------------------------7----------------|
Ab|----------------------------------------------------|
Eb|----------------------------------------------------|

eb|--------------------------------------------------------------------------------|
Bb|--------------------------------------------------------------------------------|
Gb|--5-----------------------------------------------------------------------------|
Db|--------------7-----------5-----------------------5-----7-----------------5--7--|
Ab|--------------------------------------7-----------------------------------------|
Eb|--------------------------------------------------------------------------------|

eb|--------------------|----------------------------|----------------------------|
Bb|--------------------|----------------------------|----------------------------|
Gb|--------------------|----------------------------|----------------------------|
Db|---------------7----|----------------------------|----------------------------|
Ab|--------------------|----------------------------|----------------------------|
Eb|--------------------|--5--0--5--0--3--5--0--5----|--0--5--3--0--3--0--3--5----|

eb|----------------------------|----------------------------|
Bb|----------------------------|----------------------------|
Gb|----------------------------|----------------------------|
Db|----------------------------|----------------------------|
Ab|----------------------------|----------------------------|
Eb|--5--0--5--0--3--5--0--5----|--0--5--3--0--3--0--3--5----|

eb|----------------------------|----------------------------|
Bb|----------------------------|----------------------------|
Gb|----------------------------|----------------------------|
Db|----------------------------|----------------------------|
Ab|----------------------------|----------------------------|
Eb|--5--0--5--0--3--5--0--5----|--0--5--3--0--3--0--3--5----|

eb|----------------------------|----------------------------|
Bb|----------------------------|----------------------------|
Gb|----------------------------|----------------------------|
Db|----------------------------|----------------------------|
Ab|----------------------------|--------3-------------------|
Eb|--5--0--5--0--3-----0--5----|--0--5--------3--0--3--4----|

eb|----------------------------|----------------------------|
Bb|----------------------------|----------------------------|
Gb|----------------------------|----------------------------|
Db|----------------------------|----------------------------|
Ab|----------------------------|----------------------------|
Eb|--5--0--5--0--3--5--0--5----|--0--5--3--0--3--0--3--5----|

eb|----------------------------|----------------------------|
Bb|----------------------------|----------------------------|
Gb|----------------------------|----------------------------|
Db|----------------------------|----------------------------|
Ab|----------------------------|----------------------------|
Eb|--5--0--5--0--3--5--0--5----|--0--5--3--0--3--0--3--5----|

eb|----------------------------|----------------------------|
Bb|----------------------------|----------------------------|
Gb|----------------------------|----------------------------|
Db|----------------------------|----------------------------|
Ab|----------------------------|----------------------------|
Eb|--5--0--5--0--3--5--0--5----|--0--5--3--0--3--0--3--5----|

eb|----------------------------|-------|----------------------------|
Bb|----------------------------|-------|--6-----------6--------6----|
Gb|-----------------------2----|--2----|--7-----------7--------7----|
Db|-----------------------2----|--2----|--7-----------7--------7----|
Ab|-----------------------0----|--0----|--5-----5--5--5-----5--5----|
Eb|--5--0--3--0--3--5--0-------|-------|----------------------------|

eb|----------------------------|----------------------------|
Bb|----------------------------|----------------------------|
Gb|-----7--------7--7----------|--7-----------7--------7----|
Db|-----7--------7--7----------|--8-----------8--------8----|
Ab|-----5--5-----5--5----------|--8-----------8--------8----|
Eb|-----------------------6----|--6-----6--6--6-----6--6----|

eb|----------------------------|----------------------------|
Bb|----------------------------|----------------------------|
Gb|-----7--------7--7----------|----------------------------|
Db|-----8--------8--8----------|--5-----------5--------5----|
Ab|-----8--------8--8----------|--5-----------5--------5----|
Eb|-----6--6-----6--6----------|--3-----3--3--3-----3--3----|

eb|----------------------------|----------------------------|
Bb|----------------------------|----------------------------|
Gb|----------------------------|--5-----------5--------5----|
Db|--------5-----5--5----------|--5-----------5--------5----|
Ab|--------5-----5--5----------|--3-----3--3--3-----3--3----|
Eb|--------3-----3--3-----3----|----------------------------|

eb|----------------------------|----------------------------|
Bb|----------------------------|--6-----------6--------6----|
Gb|-----5--------5--5-----5----|--7-----------7--------7----|
Db|-----5--------5--5-----5----|--7-----------7--------7----|
Ab|-----3-----3--3--3----------|--5-----5--5--5-----5--5----|
Eb|----------------------------|----------------------------|

eb|----------------------------|----------------------------|
Bb|----------------------------|----------------------------|
Gb|-----7--------7--7----------|--7-----------7--------7----|
Db|-----7--------7--7----------|--8-----------8--------8----|
Ab|-----5--5-----5--5----------|--8-----------8--------8----|
Eb|-----------------------6----|--6-----6--6--6-----6--6----|

eb|----------------------------|----------------------------|
Bb|----------------------------|----------------------------|
Gb|-----7--------7--7----------|--5-----------5--------5----|
Db|-----8--------8--8----------|--5-----------5--------5----|
Ab|-----8--------8--8----------|--3-----3--3--3-----3--3----|
Eb|-----6--6-----6--6----------|----------------------------|

eb|----------------------------|
Bb|----------------------------|
Gb|-----5--------5--5-----5----|
Db|-----5--------5--5-----5----|
Ab|-----3-----3--3--3----------|
Eb|----------------------------|

eb|--------------------------------------------0-------|--0----|
Bb|----------------------------------------------------|-------|
Gb|--2-----------------------------------------2-------|--2----|
Db|--2-----------------------------------------2-------|--2----|
Ab|--0-----------0-----0-----0-----1--0--------0-------|--0----|
Eb|--------------------------------------3-------------|-------|

eb|----------------------------|----------------------------|
Bb|----------------------------|----------------------------|
Gb|----------------------------|----------------------------|
Db|----------------------------|----------------------------|
Ab|----------------------------|----------------------------|
Eb|--5--0--5--0--3-----0--5----|--0--5--3-----5--0--3-------|

eb|----------------------------|----------------------------|
Bb|----------------------------|----------------------------|
Gb|----------------------------|----------------------------|
Db|----------------------------|----------------------------|
Ab|----------------------------|----------------------------|
Eb|--5--0--5--0--3--5--0--5----|--0--5--3--0--3--0--3--5----|

eb|----------------------------|----------------------------|
Bb|-----------------------3----|--3--2----------------------|
Gb|----------------------------|--------2-----0-------------|
Db|----------------------------|-----------2-----2--0-------|
Ab|----------------------------|-----------------------4----|
Eb|--5--0--5--0--3--5--0-------|----------------------------|

    PM------------------------| PM------------------------|
eb|----------------------------|----------------------------|
Bb|----------------------------|----------------------------|
Gb|----------------------------|----------------------------|
Db|----------------------------|----------------------------|
Ab|----------------------------|----------------------------|
Eb|--5--0--5--0--3--5--0--5----|--0--5--3--0--3--0--3--5----|

  PM------------------------|   PM------------------------|
eb|----------------------------|----------------------------|
Bb|----------------------------|----------------------------|
Gb|----------------------------|----------------------------|
Db|----------------------------|----------------------------|
Ab|----------------------------|----------------------------|
Eb|--5--0--5--0--3--5--0--5----|--0--5--3--0--3--0--3--5----|

   PM-------------------------|  PM------------------------|
eb|----------------------------|----------------------------|
Bb|----------------------------|----------------------------|
Gb|----------------------------|----------------------------|
Db|----------------------------|----------------------------|
Ab|----------------------------|----------------------------|
Eb|--5--0--5--0--3--5--0--5----|--0--5--3--0--3--0--3--5----|

eb|----------------------------|----------------------------|
Bb|----------------------------|----------------------------|
Gb|----------------------------|----------------------------|
Db|----------------------------|--5-----5-------------------|
Ab|-----6--5-----5-------------|-----7-----5b----3--5--3----|
Eb|--5--------------0--3--0----|----------------------------|

   PM-------------------------|  PM------------------------|
eb|----------------------------|----------------------------|
Bb|----------------------------|----------------------------|
Gb|----------------------------|----------------------------|
Db|----------------------------|----------------------------|
Ab|----------------------------|----------------------------|
Eb|--5--0--5--0--3--5--0--5----|--0--5--3--0--3--0--3--5----|

   PM-------------------------|  PM------------------------|
eb|----------------------------|----------------------------|
Bb|----------------------------|----------------------------|
Gb|----------------------------|----------------------------|
Db|----------------------------|----------------------------|
Ab|----------------------------|----------------------------|
Eb|--5--0--5--0--3--5--0--5----|--0--5--3--0--3--0--3--5----|

   PM-------------------------|  PM------------------------|
eb|----------------------------|----------------------------|
Bb|----------------------------|----------------------------|
Gb|----------------------------|----------------------------|
Db|----------------------------|----------------------------|
Ab|----------------------------|----------------------------|
Eb|--5--0--5--0--3--5--0--5----|--0--5--3--0--3--0--3--5----|

   PM-----------------|
eb|----------------------------|-------|----------------------------|
Bb|----------------------------|-------|--6-----------6--------6----|
Gb|-----------------------2----|--2----|--7-----------7--------7----|
Db|-----------------------2----|--2----|--7-----------7--------7----|
Ab|-----------------------0----|--0----|--5-----5--5--5-----5--5----|
Eb|--5--0--5--0--3--5--0-------|-------|----------------------------|

eb|----------------------------|----------------------------|
Bb|-----6--------6--6----------|----------------------------|
Gb|-----7--------7--7----------|--7-----------7--------7----|
Db|-----7--------7--7----------|--8-----------8--------8----|
Ab|-----5--5-----5--5----------|--8-----------8--------8----|
Eb|-----------------------6----|--6-----6--6--6-----6--6----|

eb|----------------------------|----------------------------|
Bb|----------------------------|----------------------------|
Gb|-----7--------7--7----------|----------------------------|
Db|-----8--------8--8----------|--5-----------5--------5----|
Ab|-----8--------8--8----------|--5-----------5--------5----|
Eb|-----6--6-----6--6----------|--3-----3--3--3-----3--3----|

eb|----------------------------|----------------------------|
Bb|----------------------------|----------------------------|
Gb|----------------------------|--5-----------5--------5----|
Db|--------5-----5--5----------|--5-----------5--------5----|
Ab|--------5-----5--5----------|--3-----3--3--3-----3--3----|
Eb|--------3-----3--3-----3----|----------------------------|

eb|----------------------------|----------------------------|
Bb|----------------------------|--6-----------6--------6----|
Gb|-----5--------5--5-----5----|--7-----------7--------7----|
Db|-----5--------5--5-----5----|--7-----------7--------7----|
Ab|-----3-----3--3--3----------|--5-----5--5--5-----5--5----|
Eb|----------------------------|----------------------------|

eb|----------------------------|----------------------------|
Bb|----------------------------|----------------------------|
Gb|-----7--------7--7----------|--7-----------7--------7----|
Db|-----7--------7--7----------|--8-----------8--------8----|
Ab|-----5--5-----5--5----------|--8-----------8--------8----|
Eb|-----------------------6----|--6-----6--6--6-----6--6----|

eb|----------------------------|----------------------------|
Bb|----------------------------|----------------------------|
Gb|-----7--------7--7----------|--5-----------5--------5----|
Db|-----8--------8--8----------|--5-----------5--------5----|
Ab|-----8--------8--8----------|--3-----3--3--3-----3--3----|
Eb|-----6--6-----6--6----------|----------------------------|

eb|----------------------------|
Bb|----------------------------|
Gb|-----5--------5--5-----5----|
Db|-----5--------5--5-----5----|
Ab|-----3-----3--3--3----------|
Eb|----------------------------|

eb|--------------------------------------------0-------|--0----|
Bb|----------------------------------------------------|-------|
Gb|--2-----------------------------------------2-------|--2----|
Db|--2-----------------------------------------2-------|--2----|
Ab|--0-----------0-----0-----0-----1--0--------0-------|--0----|
Eb|--------------------------------------3-------------|-------|

eb|----------------------------|----------------------------|
Bb|----------------------------|----------------------------|
Gb|----------------------------|----------------------------|
Db|-----5--------4--------3----|--------3-----2--3--2--0----|
Ab|--------5--------5----------|--5-------------------------|
Eb|--3--------3--------3-------|-----3-----3----------------|

eb|----------------------------|----------------------------|
Bb|----------------------------|----------------------------|
Gb|----------------------------|----------------------------|
Db|-----5--------4--------3----|--------3-----2--3--2--0----|
Ab|--------5--------5----------|--5-------------------------|
Eb|--3--------3--------3-------|-----3-----3----------------|

eb|----------------------------|----------------------------|
Bb|----------------------------|----------------------------|
Gb|----------------------------|----------------------------|
Db|-----5--------4--------3----|--------3-----2--3--2--0----|
Ab|--------5--------5----------|--5-------------------------|
Eb|--3--------3--------3-------|-----3-----3----------------|

eb|----------------------------|----------------------------|
Bb|----------------------------|----------------------------|
Gb|--0--12-0--0--11-0--0--10---|--0--0--10-0--9--10-9--7----|
Db|----------------------------|----------------------------|
Ab|----------------------------|----------------------------|
Eb|----------------------------|----------------------------|

eb|-----13-12-13-10-13-12-13---|-----13-12-13-10-13-12-13---|
Bb|--10------------------------|--10------------------------|
Gb|----------------------------|----------------------------|
Db|----------------------------|----------------------------|
Ab|----------------------------|----------------------------|
Eb|----------------------------|----------------------------|

eb|-----13-12-13-10-13-12-13---|-----13-12-13-10-13-12-13---|
Bb|--11------------------------|--11------------------------|
Gb|----------------------------|----------------------------|
Db|----------------------------|----------------------------|
Ab|----------------------------|----------------------------|
Eb|----------------------------|----------------------------|

eb|-----15-13-15-12-15-13-15---|-----15-13-15-12-15-13-15---|
Bb|--12------------------------|--12------------------------|
Gb|----------------------------|----------------------------|
Db|----------------------------|----------------------------|
Ab|----------------------------|----------------------------|
Eb|----------------------------|----------------------------|

eb|-----15-12-15-13-15-12-15---|-----15-12-15-13-15-12-15---|
Bb|--13------------------------|--13------------------------|
Gb|----------------------------|----------------------------|
Db|----------------------------|----------------------------|
Ab|----------------------------|----------------------------|
Eb|----------------------------|----------------------------|

eb|-----17-15-17----17-15-17---|-----17-15-17----17-15-17---|
Bb|--14----------17------------|--14----------17------------|
Gb|----------------------------|----------------------------|
Db|----------------------------|----------------------------|
Ab|----------------------------|----------------------------|
Eb|----------------------------|----------------------------|

eb|-----17-13-17----17-13-17---|-----17-13-17----17-13-17---|
Bb|--15----------17------------|--15----------17------------|
Gb|----------------------------|----------------------------|
Db|----------------------------|----------------------------|
Ab|----------------------------|----------------------------|
Eb|----------------------------|----------------------------|

eb|-----18-17-18----17-15-17---|-----15-14-15----15-14-15---|
Bb|--15----------14------------|--13----------12------------|
Gb|----------------------------|----------------------------|
Db|----------------------------|----------------------------|
Ab|----------------------------|----------------------------|
Eb|----------------------------|----------------------------|

eb|-----13-12-13----13-12-13---|-----12-10-12-12-12-10-12---|
Bb|--11----------10------------|--9-------------------------|
Gb|----------------------------|----------------------------|
Db|----------------------------|----------------------------|
Ab|----------------------------|----------------------------|
Eb|----------------------------|----------------------------|

eb|--12---------------------------------12-~------10---|
Bb|--------------------------------------------10------|
Gb|----------------------------------------------------|
Db|----------------------------------------------------|
Ab|----------------------------------------------------|
Eb|----------------------------------------------------|

eb|--------------------------------------10------------|
Bb|--13b------------------------------------13-10-13---|
Gb|----------------------------------------------------|
Db|----------------------------------------------------|
Ab|----------------------------------------------------|
Eb|----------------------------------------------------|

eb|----------------------------------------------------|
Bb|--13----------------------13~------15-13----16------|
Gb|-----------------------------------------14---------|
Db|----------------------------------------------------|
Ab|----------------------------------------------------|
Eb|----------------------------------------------------|

eb|----------------------------------------------------|
Bb|--16-~--------------------------------17b---15-16---|
Gb|----------------------------------------------------|
Db|----------------------------------------------------|
Ab|----------------------------------------------------|
Eb|----------------------------------------------------|

eb|----------------------------|--15----------15~15b--------|
Bb|--16-~--------------15------|----------------------------|
Gb|-----------------------14---|----------------------------|
Db|----------------------------|----------------------------|
Ab|----------------------------|----------------------------|
Eb|----------------------------|----------------------------|

eb|--15~---------------------------------------------------------------------13----|
Bb|--------------------------------------------------------------------------------|
Gb|--------------------------------------------------------------------------------|
Db|--------------------------------------------------------------------------------|
Ab|--------------------------------------------------------------------------------|
Eb|--------------------------------------------------------------------------------|

eb|---------------------15----------13----------12---------------------|
Bb|--------------------------------------------------------------------|
Gb|--------------------------------------------------------------------|
Db|--------------------------------------------------------------------|
Ab|--------------------------------------------------------------------|
Eb|--------------------------------------------------------------------|

eb|--13----------12-13-12-12----------------12b--------|
Bb|----------------------------------------------------|
Gb|----------------------------------------------------|
Db|----------------------------------------------------|
Ab|----------------------------------------------------|
Eb|----------------------------------------------------|

eb|----------------------------------------------------|
Bb|--13----13~---------------------------------10/13---|
Gb|-----12---------------------------------------------|
Db|----------------------------------------------------|
Ab|----------------------------------------------------|
Eb|----------------------------------------------------|

eb|-----------------------12---|--12-12b12b11---|
Bb|--14---------14--14-15------|----------------|
Gb|----------------------------|----------------|
Db|----------------------------|----------------|
Ab|----------------------------|----------------|
Eb|----------------------------|----------------|

eb|--11b---------12----------10----------12----------13----12----10----------13----|
Bb|--------------------------------------------------------------------------------|
Gb|--------------------------------------------------------------------------------|
Db|--------------------------------------------------------------------------------|
Ab|--------------------------------------------------------------------------------|
Eb|--------------------------------------------------------------------------------|

eb|------10-12-10------|
Bb|---------------13---|
Gb|--------------------|
Db|--------------------|
Ab|--------------------|
Eb|--------------------|

eb|-----------10---------------------------------------------------------------|
Bb|--13----------------13b---------------------------------------17----18------|
Gb|--------------------------------------------------------19------------------|
Db|----------------------------------------------------------------------------|
Ab|----------------------------------------------------------------------------|
Eb|----------------------------------------------------------------------------|

eb|-----------17-18-17---------------------|
Bb|--17-18-20----------20-18-17----17-18---|
Gb|-----------------------------19---------|
Db|----------------------------------------|
Ab|----------------------------------------|
Eb|----------------------------------------|

eb|--------------------------17----------------------18-------17-------------------|
Bb|--20----------------------------------------------------------------20-------18-|
Gb|--------------------------------------------------------------------------------|
Db|--------------------------------------------------------------------------------|
Ab|--------------------------------------------------------------------------------|
Eb|--------------------------------------------------------------------------------|

eb|--------------------------------------------------------------------------------|
Bb|------17-------------------------------17----------------------18---------------|
Gb|---------------19---------------------------------------------------------------|
Db|--------------------------------------------------------------------------------|
Ab|--------------------------------------------------------------------------------|
Eb|--------------------------------------------------------------------------------|

eb|-------------------------------17----------------------18-----------------------|
Bb|-------20-----------------------------------------------------------------------|
Gb|--------------------------------------------------------------------------------|
Db|--------------------------------------------------------------------------------|
Ab|--------------------------------------------------------------------------------|
Eb|--------------------------------------------------------------------------------|

eb|-----------------------------------------------18b--|
Bb|----------------------------------------------------|
Gb|----------------------------------------------------|
Db|----------------------------------------------------|
Ab|----------------------------------------------------|
Eb|----------------------------------------------------|

eb|--18----------17----------------------18----------17----18----17----------------|
Bb|--------------------------20----------------------------------------20----------|
Gb|--------------------------------------------------------------------------------|
Db|--------------------------------------------------------------------------------|
Ab|--------------------------------------------------------------------------------|
Eb|--------------------------------------------------------------------------------|

eb|------17------------------------------------------------------------|-------|
Bb|20----------20----18----------18-------17---------------------------|-------|
Gb|------------------------------------------------19-------19---------|--19-~-|
Db|--------------------------------------------------------------------|-------|
Ab|--------------------------------------------------------------------|-------|
Eb|--------------------------------------------------------------------|-------|

eb|--15-17-15----15------------|
Bb|-----------18----18-17-15---|
Gb|----------------------------|
Db|----------------------------|
Ab|----------------------------|
Eb|----------------------------|

eb|--12-13-12-10-12----10----------------10------------|
Bb|--------------------------13----11----------13------|
Gb|----------------------------------------------------|
Db|----------------------------------------------------|
Ab|----------------------------------------------------|
Eb|----------------------------------------------------|

eb|----------------------------------------------------|----------|
Bb|--11-13-11----10----11----10-11-10----8-------------|----------|
Gb|--------------------------------------------10------|--9--9/---|
Db|----------------------------------------------------|----------|
Ab|----------------------------------------------------|----------|
Eb|----------------------------------------------------|----------|

eb|-----------------------------------------15---------|
Bb|--15b---------------------15----13------------------|
Gb|----------------------------------------------------|
Db|----------------------------------------------------|
Ab|----------------------------------------------------|
Eb|----------------------------------------------------|

eb|--15b---------------------------18------------------|--18-~-|--18-18---|--18-~-|
Bb|--------------------------17------------------------|-------|----------|-------|
Gb|-----------------------------19---------------------|-------|----------|-------|
Db|----------------------------------------------------|-------|----------|-------|
Ab|----------------------------------------------------|-------|----------|-------|
Eb|----------------------------------------------------|-------|----------|-------|

eb|----------------------------|----------------------------|
Bb|----------------------------|----------------------------|
Gb|--7-----------7--------7----|-----7--------7--7----------|
Db|--8-----------8--------8----|-----8--------8--8----------|
Ab|--8-----------8--------8----|-----8--------8--8----------|
Eb|--6-----6--6--6-----6--6----|-----6--6-----6--6----------|

eb|----------------------------|----------------------------|
Bb|----------------------------|----------------------------|
Gb|----------------------------|----------------------------|
Db|--5-----------5--------5----|--------5-----5--5----------|
Ab|--5-----------5--------5----|--------5-----5--5----------|
Eb|--3-----3--3--3-----3--3----|--------3-----3--3-----3----|

eb|--------------0-----1--0----|--------0-------------------|
Bb|----------------------------|--3--1-----3--1-----1-------|
Gb|----------------------------|-----------------2-----2----|
Db|--------0--2----------------|----------------------------|
Ab|--3-------------------------|----------------------------|
Eb|----------------------------|----------------------------|

eb|----------------------------|----------------------------|
Bb|--6-----------6--------6----|----------------------------|
Gb|--7-----------7--------7----|-----7--------7--7----------|
Db|--7-----------7--------7----|-----7--------7--7----------|
Ab|--5-----5--5--5-----5--5----|-----5--5-----5--5----------|
Eb|----------------------------|-----------------------6----|

eb|----------------------------|----------------------------|
Bb|----------------------------|----------------------------|
Gb|--7-----------7--------7----|-----7--------7--7----------|
Db|--8-----------8--------8----|-----8--------8--8----------|
Ab|--8-----------8--------8----|-----8--------8--8----------|
Eb|--6-----6--6--6-----6--6----|-----6--6-----6--6----------|

eb|----------------------------|----------------------------|
Bb|----------------------------|----------------------------|
Gb|----------------------------|----------------------------|
Db|--5-----------5--------5----|--------5-----5--5----------|
Ab|--5-----------5--------5----|--------5-----5--5----------|
Eb|--3-----3--3--3-----3--3----|--------3-----3--3-----3----|

eb|----------------------------|----------------------------|
Bb|--------------5--------5----|--5--5b-------5-------------|
Gb|-----------5--------5-------|-----------5-----5----------|
Db|--------5/------------------|-----------------------5----|
Ab|--3-------------------------|----------------------------|
Eb|----------------------------|----------------------------|

eb|----------------------------|----------------------------|
Bb|--6-----------6--------6----|----------------------------|
Gb|--7-----------7--------7----|--------9--------10---------|
Db|--7-----------7--------7----|----------------------------|
Ab|--5-----5--5--5-----5--5----|--------7--------8----------|
Eb|----------------------------|----------------------------|

eb|----------------------------|----------------------------|
Bb|----------------------------|----------------------------|
Gb|--7-----------7--------7----|--------9--------10---------|
Db|--8-----------8--------8----|----------------------------|
Ab|--8-----------8--------8----|--------7--------8----------|
Eb|--6-----6--6--6-----6--6----|----------------------------|

eb|----------------------------|----------------------------|
Bb|----------------------------|----------------------------|
Gb|----------------------------|--------10-------9----------|
Db|--5-----------5--------5----|----------------------------|
Ab|--5-----------5--------5----|--------8--------7----------|
Eb|--3-----3--3--3-----3--3----|----------------------------|

eb|----------------------------|----------------------------|
Bb|----------------------------|----------------------------|
Gb|--5-----------5--------5----|--------9--------10---------|
Db|--5-----------5--------5----|----------------------------|
Ab|--3-----3--3--3-----3--3----|--------7--------8----------|
Eb|----------------------------|----------------------------|

eb|----------------------------|----------------------------|
Bb|--6-----------6--------6----|----------------------------|
Gb|--7-----------7--------7----|--------9--------10---------|
Db|--7-----------7--------7----|----------------------------|
Ab|--5-----5--5--5-----5--5----|--------7--------8----------|
Eb|----------------------------|----------------------------|

eb|----------------------------|----------------------------|
Bb|----------------------------|----------------------------|
Gb|--7-----------7--------7----|--------10-------9----------|
Db|--8-----------8--------8----|----------------------------|
Ab|--8-----------8--------8----|--------8--------7----------|
Eb|--6-----6--6--6-----6--6----|----------------------------|

eb|----------------------------|----------------------------|
Bb|----------------------------|----------------------------|
Gb|--5-----------5--------5----|--------9--------7----------|
Db|--5-----------5--------5----|----------------------------|
Ab|--3-----3--3--3-----3--3----|--------7--------5----------|
Eb|----------------------------|----------------------------|

eb|----------------------------|-------|-------|----------------------------|
Bb|----------------------------|-------|-------|----------------------------|
Gb|--6--------7--------9-------|--14---|-------|----------------------------|
Db|----------------------------|-------|-------|----------------------------|
Ab|--4--------5--------7-------|--12---|-------|----------------------------|
Eb|----------------------------|-------|-------|-----2-----------------2b---|

eb|-------|-------|-------|-------|-------|-------|----------------------------|
Bb|-------|-------|-------|-------|-------|-------|----------------------------|
Gb|--6----|--6----|-------|-------|-------|-------|----------------------------|
Db|--7----|--7----|--7----|-------|-------|-------|-----------7----------------|
Ab|--7----|--7----|--7----|--7----|-------|-------|--7--8--10----8--10-8--7----|
Eb|--5----|--5----|--5----|--5----|--5----|-------|----------------------------|

eb|----------------------------------------------------|
Bb|----------------------------------------------------|
Gb|----------------------------------------------------|
Db|--5-------------------------------------------------|
Ab|--------8-----7--8--7--5--7-----5-----4-------------|
Eb|--------------------------------------------5-------|

eb|----------------------------|----------------------------|
Bb|----------------------------|----------------------------|
Gb|----------------------------|----------------------------|
Db|--------5-------------------|-----------------------5----|
Ab|--5--4-----4--5--7--5--4----|--5--4--7--4--5--7--8-------|
Eb|----------------------------|----------------------------|

eb|----------------------------|
Bb|----------------------------|
Gb|----------------------------|
Db|--------5--------5----------|
Ab|--8--7-----8--7-----7--8----|
Eb|----------------------------|

eb|----------------------------------------------------|
Bb|----------------------------------------------------|
Gb|----------------------------------------------------|
Db|--5-----------5-----------7-----------5-----7-------|
Ab|--------7--8--------8-----------8-------------------|
Eb|----------------------------------------------------|

eb|----------------------------------------------------|
Bb|----------------------------------------------------|
Gb|----------------------------------------------------|
Db|--8-----7--8--7--5-----7-----5--7--5--------5-------|
Ab|--------------------8-----------------8--7----------|
Eb|----------------------------------------------------|

eb|--------------------------------------------------------------------------------|
Bb|--------------------------------------------------------------------------------|
Gb|--------------------------------------------------------------------------------|
Db|--------------------------------------------------------------------------------|
Ab|--8--------10-------8--------7--------7-----------------5-----------------7-----|
Eb|--------------------------------------------------------------------------------|

eb|--------------------------------------------------------------------|
Bb|--------------------------------------------------------------------|
Gb|--------------------------------------------------------------------|
Db|--------------------------------------------------------------------|
Ab|------------8-----------------5-----------7-----------5-------------|
Eb|--------------------------------------------------------------------|

eb|----------------------------|-------|-------|----------------------------|
Bb|----------------------------|-------|-------|----------------------------|
Gb|----------------------------|-------|--6----|---6-~--------6--7--9-------|
Db|----------------------------|-------|-------|--------7-------------------|
Ab|--4~----------------4--7----|-------|-------|----------------------------|
Eb|----------------------------|--5~---|-------|----------------------------|

eb|----------------------------|----------------------------|
Bb|----------------------------|----------------------------|
Gb|--9-----9-----7--7--7--7----|--7----------7---6--7--9----|
Db|----------------------------|----------------------------|
Ab|----------------------------|----------------------------|
Eb|----------------------------|----------------------------|

eb|----------------------------|----------------------|
Bb|----------------------------|----------------------|
Gb|--10----------------9--10---|--12-------10-9--10---|
Db|----------------------------|----------------------|
Ab|----------------------------|----------------------|
Eb|----------------------------|----------------------|

eb|----------------------------------------------------|
Bb|----------------------------------------------------|
Gb|--9-----10-9--7-----9-----7-----9-----7-----7-------|
Db|----------------------------------------------------|
Ab|----------------------------------------------------|
Eb|----------------------------------------------------|

eb|----------------------------|----------------------------|
Bb|----------------------------|--10----10------------------|
Gb|--7b----------------7--9----|-----9----------------------|
Db|----------------------------|----------------------------|
Ab|----------------------------|----------------------------|
Eb|----------------------------|----------------------------|

eb|----------------------------|----------------------------|
Bb|--10-------------10---------|--10b---------------10-10---|
Gb|--------------9-------------|----------------------------|
Db|----------------------------|----------------------------|
Ab|----------------------------|----------------------------|
Eb|----------------------------|----------------------------|

eb|----------------------------|
Bb|--10----------------10-11---|
Gb|----------------------------|
Db|----------------------------|
Ab|----------------------------|
Eb|----------------------------|

eb|----------------------------------------------------|
Bb|--11b---------11----------10----11-------10---------|
Gb|----------------------------------------------------|
Db|----------------------------------------------------|
Ab|----------------------------------------------------|
Eb|----------------------------------------------------|

eb|--------------------------------------------------------------------------------|
Bb|--10-------11----10----8-----------11----------10----------11----10----8--------|
Gb|--------------------------------------------------------------------------------|
Db|--------------------------------------------------------------------------------|
Ab|--------------------------------------------------------------------------------|
Eb|--------------------------------------------------------------------------------|

eb|--------------------|----------------------------|----------------------------|
Bb|---10----------10---|--------10-------10---------|----------------------------|
Gb|--------------------|--9--------7--------6-------|--6-----6/------------------|
Db|--------------------|----------------------------|----------------------------|
Ab|--------------------|----------------------------|----------------------------|
Eb|--------------------|----------------------------|----------------------------|

eb|-------|----------------------------|----------------------------|
Bb|--15b--|--15b---15b---15-14-15-15---|--15----17~------18---------|
Gb|-------|----------------------------|----------------------------|
Db|-------|----------------------------|----------------------------|
Ab|-------|----------------------------|----------------------------|
Eb|-------|----------------------------|----------------------------|

eb|----------------|----------------------------|
Bb|--18-~-----18b--|--18b------18b------18b-----|
Gb|----------------|----------------------------|
Db|----------------|----------------------------|
Ab|----------------|----------------------------|
Eb|----------------|----------------------------|

eb|----------------------------------------------------|
Bb|--18----17----18----17-18-17-15-18----17-18-17-15---|
Gb|----------------------------------------------------|
Db|----------------------------------------------------|
Ab|----------------------------------------------------|
Eb|----------------------------------------------------|

eb|--------------------------------------------------------------------------------|
Bb|--17----------15----17----15----17-------15----17-15-14----15----14----15----15-|
Gb|--------------------------------------------------------------------------------|
Db|--------------------------------------------------------------------------------|
Ab|--------------------------------------------------------------------------------|
Eb|--------------------------------------------------------------------------------|

eb|--------------------|-------|--15----------------15b-----|
Bb|---14---------------|-------|----------------------------|
Gb|---------14---------|--14---|----------------------------|
Db|--------------------|-------|----------------------------|
Ab|--------------------|-------|----------------------------|
Eb|--------------------|-------|----------------------------|

eb|--15b---15----13----13-15-13-12-15-13-15----13-12---|
Bb|----------------------------------------------------|
Gb|----------------------------------------------------|
Db|----------------------------------------------------|
Ab|----------------------------------------------------|
Eb|----------------------------------------------------|

eb|--15----13-15-13-12-13-15----13-15-13-12-13-15------|
Bb|----------------------------------------------------|
Gb|----------------------------------------------------|
Db|----------------------------------------------------|
Ab|----------------------------------------------------|
Eb|----------------------------------------------------|

eb|--15----13-15-13-12-13-15----13-15-13-12-13-15------|
Bb|----------------------------------------------------|
Gb|----------------------------------------------------|
Db|----------------------------------------------------|
Ab|----------------------------------------------------|
Eb|----------------------------------------------------|

eb|--15-13-15-13----17-15-17-15-15-13-15-13-15-13-15---|
Bb|----------------------------------------------------|
Gb|----------------------------------------------------|
Db|----------------------------------------------------|
Ab|----------------------------------------------------|
Eb|----------------------------------------------------|

eb|--15-12-13-12-15-12-13-12-12-13-12-10-12-10-9-------|
Bb|----------------------------------------------------|
Gb|----------------------------------------------------|
Db|----------------------------------------------------|
Ab|----------------------------------------------------|
Eb|----------------------------------------------------|

eb|--9-------------------------|-------|--18----------------18b-----|
Bb|--------------------14-15---|--17~--|----------------------------|
Gb|-----------------14---------|-------|----------------------------|
Db|----------------------------|-------|----------------------------|
Ab|----------------------------|-------|----------------------------|
Eb|----------------------------|-------|----------------------------|

eb|--18b---------19b------17---|--20----------------20b-----|
Bb|----------------------------|----------------------------|
Gb|----------------------------|----------------------------|
Db|----------------------------|----------------------------|
Ab|----------------------------|----------------------------|
Eb|----------------------------|----------------------------|

eb|--20b---20b------20b--------|--22b------22b--|--22b------22---|
Bb|----------------------------|----------------|----------------|
Gb|----------------------------|----------------|----------------|
Db|----------------------------|----------------|----------------|
Ab|----------------------------|----------------|----------------|
Eb|----------------------------|----------------|----------------|

eb|--22----------------22b22-22-22-22-22-22-22-22-22---|
Bb|----------------------------------------------------|
Gb|----------------------------------------------------|
Db|----------------------------------------------------|
Ab|----------------------------------------------------|
Eb|----------------------------------------------------|

eb|--21-21-21-21-21-21-21-21-22-22-22-22-21-21-21-21---|
Bb|----------------------------------------------------|
Gb|----------------------------------------------------|
Db|----------------------------------------------------|
Ab|----------------------------------------------------|
Eb|----------------------------------------------------|


eb|--21-21-21-21-18-18-18-21-21-18-18-17-17-18-18-17---|
Bb|----------------------------------------------------|
Gb|----------------------------------------------------|
Db|----------------------------------------------------|
Ab|----------------------------------------------------|
Eb|----------------------------------------------------|

eb|--17-17-17-18-18-18-17-17-17-15-15-15-17-17-15-15---|
Bb|----------------------------------------------------|
Gb|----------------------------------------------------|
Db|----------------------------------------------------|
Ab|----------------------------------------------------|
Eb|----------------------------------------------------|

eb|--13-13-13-15-15-15-13-13-13-13-13-15-15-15-13-13---|
Bb|----------------------------------------------------|
Gb|----------------------------------------------------|
Db|----------------------------------------------------|
Ab|----------------------------------------------------|
Eb|----------------------------------------------------|

eb|--13-12-12-12-10-10-10-12-12-10-9--9--9--9--10-10---|
Bb|----------------------------------------------------|
Gb|----------------------------------------------------|
Db|----------------------------------------------------|
Ab|----------------------------------------------------|
Eb|----------------------------------------------------|

eb|--13-13-13-15-15-13-13-12-12-13-13-12-12-10-10-10---|
Bb|----------------------------------------------------|
Gb|----------------------------------------------------|
Db|----------------------------------------------------|
Ab|----------------------------------------------------|
Eb|----------------------------------------------------|

eb|--12-12-12-10-10-10-9--9--9--9--9--10-10-9--9--9----|
Bb|----------------------------------------------------|
Gb|----------------------------------------------------|
Db|----------------------------------------------------|
Ab|----------------------------------------------------|
Eb|----------------------------------------------------|

eb|--10-10-9--9--10-10-9--9--6--6--6--8--8--6--6--5----|
Bb|----------------------------------------------------|
Gb|----------------------------------------------------|
Db|----------------------------------------------------|
Ab|----------------------------------------------------|
Eb|----------------------------------------------------|

eb|--5--6--6--5--5-------------------------------------|
Bb|----------------------------------------------------|
Gb|----------------------------------------------------|
Db|----------------------------------------------------|
Ab|----------------------------------------------------|
Eb|----------------------------------------------------|

eb|----------------------------|----------------------------|
Bb|----------------------------|-----------------------5----|
Gb|--7--6-----7--6-----7--6----|-----7--6-----7--6----------|
Db|--------7--------7----------|--7--------7--------7-------|
Ab|----------------------------|----------------------------|
Eb|----------------------------|----------------------------|

eb|----------------------------|
Bb|-----------------5----------|
Gb|--6-----7--6--------6-------|
Db|-----7--------7--------7----|
Ab|----------------------------|
Eb|----------------------------|

eb|-----------------------------------------5----------|
Bb|--------------------------------5--6--8-----8--6----|
Gb|--7-----------------------6--7----------------------|
Db|----------------------------------------------------|
Ab|----------------------------------------------------|
Eb|----------------------------------------------------|

eb|-----------------------5----------------------------|
Bb|--5-----------5--6--8-----8--6--5-----------5--6----|
Gb|-----7--6--7-----------------------7--6--7----------|
Db|----------------------------------------------------|
Ab|----------------------------------------------------|
Eb|----------------------------------------------------|

eb|--5-----5----------------------5-~------------------|
Bb|-----8--------------------------------10-8----------|
Gb|--------------------------------------------9-------|
Db|----------------------------------------------------|
Ab|----------------------------------------------------|
Eb|----------------------------------------------------|

eb|----------------------------|----------------------------|
Bb|--13b---------13b---13b10---|--13b-----------------------|
Gb|----------------------------|----------------------------|
Db|----------------------------|----------------------------|
Ab|----------------------------|----------------------------|
Eb|----------------------------|----------------------------|

eb|----------------------------|----------------------------|
Bb|----------------------------|----------------------------|
Gb|----------------------------|----------------------------|
Db|----------------------------|----------------------------|
Ab|----------------------------|----------------------------|
Eb|--5--0--5--0--3-----0--5----|--0--5--3-----5--0--3-------|

eb|----------------------------|----------------------------|
Bb|----------------------------|----------------------------|
Gb|----------------------------|----------------------------|
Db|----------------------------|----------------------------|
Ab|----------------------------|----------------------------|
Eb|--5--0--5--0--3-----0--5----|--0--5--3-----5--0--3-------|

eb|----------------------------|----------------------------|
Bb|----------------------------|----------------------------|
Gb|----------------------------|----------------------------|
Db|----------------------------|----------------------------|
Ab|----------------------------|--------4--------5----------|
Eb|--5--0--5--0--3-----0--5----|--0--5----------------------|

eb|----------------------------|----------------------------|-------|
Bb|----------------------------|----------------------------|-------|
Gb|----------------------------|----------------------------|-------|
Db|----------------------------|----------------------------|-------|
Ab|--5--4--5--4--5--4----------|----------------------------|--0----|
Eb|--------------------5--5----|--5-----5--0--3--5--5--0----|-------|



***********************************
| /   Slide up
| h   Hammer-on
| p   Pull-off
| ~   Vibrato
| x   Dead note
| b   Bend 
***********************************
comments
print report bad tab
12 comments total. Showing first comments.
+1 reply
33SLASH33 3,119 wrote on June 1 2012, 08:14 pm

:) Nice you mentioned that it is created by me.
Btw u can also listen to my guitar pro tab of this in my profile ;D

0 reply
OJ12 172 wrote on January 27 2013, 11:36 pm

the first solo i couldnt figure it out, Ive to do it by myself.

0 reply
33SLASH33 3,119 wrote on February 9 2013, 07:44 pm

just download my original guitar pro version of it and play it in guitar pro, much easier than reading from here )

I want to post or [tab]
guest
You may want to rate the tab now too:
select rating
Please do not post tabs as comments. Select "correction" instead!