Oops, an error
Loading. Please wait.

Anastasia tab

version 2
version 2

Whole song

  • Some parts made simpler, ends in the middle of the... Show more

Interactive

by Slash
7,524 views 18 this week
1 commentread comment
1 2 3 4 5
x 7
add to favorites
×
Save as Personal and add changes to this tab that will be seen only by you. Learn more ›
×
You can save this tab as Personal to edit and correct it or add notes. All changes will be seen only by you. Learn more »
launch autoscroll
font size
0
reset
how to read this tab
guitar tuner
backing track
0:00
0:00
edit
Autoscroll
slow
fast
+/-
esc
set tempo
stop
Author
Difficulty
About this tab version
Some parts made simpler, ends in the middle of the second solo (for my own reference for music gcse). Was this info helpful? Yes No
e|----------------------------------------1---------------1---------------1---------------|
B|--------6---------------6-------------3---3-----------3---3-----------3---3-----------3-|
G|------7---7-----------7---7---------3-------3---3---3-------3---3---0-------0---0---0---|
D|----7-------7---7---7-------7---7-------------------------------------------------------|
A|--5-----------5---5-----------5---1-----------1---1-----------1---2-----------2---------|
E|----------------------------------------------------------------------------------3-----|

e|--1-------1-----------------------------------------------------------------------------|
B|--------3---------5-------5-----------------------5-------5-5---5---5\--3---2-------6---|
G|------0---------5---5-------5-----5-0---0-------6-------6-------------------------7---7-|
D|--------------5-------5-------5-------2-------5-------5-----5---5---5\--3---2---7-------|
A|----2-------3-----------3-------3---------3-4-------5-------------------------5---------|
E|------------------------------------------------------------3---3-----------------------|

e|----------------------0-------1-------0-------------------------------------------0-----|
B|--------------6-----3-------3-------2---------5---------------3-----------------0---0---|
G|------------7-----2-------3-------2---------5---------4-----3---------2-------1-------1-|
D|--7---7---7-------------------------------5---------5-----3---------3-------2-----------|
A|----5---5-------3-------1-------0-------3---------5-----1---------3-------2-------------|
E|------------------------------------------------3---------------1-------0---------------|

e|----------------------0-3-3-3-1h3p1-0------------|
B|--------------------2-----------------2---5-s6-5-|x (TRILL 5h6p5 etc)
G|----1-------------0---------------------2-2------|
D|--2-----2-------2--------------------------------|
A|------2-------0----------------------------------|
E|------------0------------------------------------|

e|-----13-12-13-10-13-12-13----13-12-13-10-13-12-13----13-12-13-10-13-12-13----13-12-13-10--|
B|--10----------------------10----------------------11----------------------11--------------|
G|------------------------------------------------------------------------------------------|
D|------------------------------------------------------------------------------------------|
A|------------------------------------------------------------------------------------------|
E|------------------------------------------------------------------------------------------|

e|--13-12-13----15-13-15-12-15-13-15----15-13-15-12-15-13-15----15-12-15-13-15-12-15----15--|
B|-----------12----------------------12----------------------13----------------------13-----|
G|------------------------------------------------------------------------------------------|
D|------------------------------------------------------------------------------------------|
A|------------------------------------------------------------------------------------------|
E|------------------------------------------------------------------------------------------|


e|--12-15-13-15-12-15----17-15-17-12-17-15-17----17-15-17-12-17-15-17----17-13-17-12-17-13--|
B|--------------------14----------------------14----------------------15--------------------|
G|------------------------------------------------------------------------------------------|
D|------------------------------------------------------------------------------------------|
A|------------------------------------------------------------------------------------------|
E|------------------------------------------------------------------------------------------|

e|--17----17-13-17-12-17-13-17----18-17-18----17-15-17----15-14-15----15-14-15----13-12-13--|
B|-----15----------------------15----------14----------13----------12----------11-----------|
G|------------------------------------------------------------------------------------------|
D|------------------------------------------------------------------------------------------|
A|------------------------------------------------------------------------------------------|
E|------------------------------------------------------------------------------------------|

e|-----13-12-13---12-10-12----8-7-8---7----7-------------5---5------------------10b12-|
B|--10----------9----------10-------9---10-----10-8-10-6---8-----8-7-8-7b8--7-5-------|
G|-------------------------------------------7-----------------5----------------------|
D|------------------------------------------------------------------------------------|
A|------------------------------------------------------------------------------------|
E|------------------------------------------------------------------------------------|

e|----------------------------------------------------------------------------------------|
B|----------------------------------------------------------------------------------------|
G|----------------------------------------------------------------------------------------|
D|----------------------------------------------------------------------------------------|
A|----------------------------------------------------------------------------------------|
E|--5-0-5-0-3-5-0-5-0-5-3-0-3-0-3-5-5-0-5-0-3-5-0-5-0-5-3-0-3-0-3-5-5-0-5-0-3-5-0-5-0-5-3-|

e|------------5-5-------------------------------|
B|------------5------------3--------------------|
G|----------------5h3----5---3------------------|
D|---------------------5-------5h3----3-5b6-5p3-|
A|----------------------------------5-----------|
E|--0-3-0-3-5-----------------------------------|

e|------------------------------------------------------------------------------------------------|
B|----------------------------------3-------------------------------------------------------------|
G|----------------------------------3-7-7-7-7-------------------5-5-5-5-7-7-7-7---------5-5-5-5-3-|
D|----------------------------------3-7-7-7-7-8-8-8-8-5-5-5-5---5-5-5-5-7-7-7-7-8-8-8-8-5-5-5-5-3-|
A|----------------------------------0-5-5-5-5-8-8-8-8-5-5-5-5---3-3-3-3-5-5-5-5-8-8-8-8-3-3-3-3-0-|
E|--5-0-5-0-3-5-0-5-0-5-3-0-3-0-3-5-----------6-6-6-6-3-3-3-3-------------------6-6-6-6-----------|

e|-------------------------------------------------------------------------------------------------|
B|--------3----------------------------------------------------------------------------------------|
G|--------3----------------------------------------------------------------------------------------|
D|--------3----------------------------------------------------------------------------------------|
A|0h1p0---0----------------------------------------------------------------------------------------|
E|------3---5-0-5-0-3-5-0-5-0-5-3-0-3-0-3-5-5-0-5-0-3-5-0-5-0-5-3-0-3-0-3-5-5-0-5-0-3-5-0-5-0-5-3--|

e|-------------------------------------------------------------------------|
B|--3p2--------------------------------------------------------------------|
G|-------2---0-------------------------------------------------------------|
D|---------2---2-0------------------------------------------5---5----------|
A|-----------------4------------------------------------6-5---7---5-3h5--3-|
E|-------------------5-0-5-0-3-5-0-5-0-5-3-0-3-0-3-5--5--------------------|

e|-------------------------------------------------------------------------------------------------|
B|----------------------------------3--------------------------------------------------------------|
G|----------------------------------3-7-7-7-7-------------------5-5-5-5-7-7-7-7---------5-5-5-5-3--|
D|----------------------------------3-7-7-7-7-8-8-8-8-5-5-5-5---5-5-5-5-7-7-7-7-8-8-8-8-5-5-5-5-3--|
A|----------------------------------0-5-5-5-5-8-8-8-8-5-5-5-5---3-3-3-3-5-5-5-5-8-8-8-8-3-3-3-3-0--|
E|--5-0-5-0-3-5-0-5-0-5-3-0-3-0-3-5-----------6-6-6-6-3-3-3-3-------------------6-6-6-6------------|

e|------------------------------------------------------------------------------------------------------|
B|---------3--------------------------------------------------------------------------------------------|
G|---------3---------------------------------------------------------------0-12-0-0-11-0-0-10-0-0-10-0--|
D|---------3----5-----4-----3-----3-2h3p2p0---5-----4-----3-----3-2h3p2p0-------------------------------|
A|-0h1p0---0------5-----5-----5-----------------5-----5-----5-------------------------------------------|
E|-------3----3-----3-----3-----3------------3-----3-----3-----3----------------------------------------|

e|--------------13-12-13-10-13-12-13----13-12-13-10-13-12-13----13-12-13-10-13-12-13----13-12-13-10-13--|
B|-----------10----------------------10----------------------11----------------------11-----------------|
G|-9h10p9-7---------------------------------------------------------------------------------------------|
D|------------------------------------------------------------------------------------------------------|
A|------------------------------------------------------------------------------------------------------|
E|------------------------------------------------------------------------------------------------------|

e|--12-13----15-13-15-12-15-13-15----15-13-15-12-15-13-15----15-12-15-13-15-12-15----15--|
B|--------12----------------------12----------------------13----------------------13-----|
G|---------------------------------------------------------------------------------------|
D|---------------------------------------------------------------------------------------|
A|---------------------------------------------------------------------------------------|
E|---------------------------------------------------------------------------------------|

e|--12-15-13-15-12-15----17-15-17-12-17-15-17----17-15-17-12-17-15-17----17-13-17-12-17-13--|
B|--------------------14----------------------14----------------------15--------------------|
G|------------------------------------------------------------------------------------------|
D|------------------------------------------------------------------------------------------|
A|------------------------------------------------------------------------------------------|
E|------------------------------------------------------------------------------------------|

e|--17----17-13-17-12-17-13-17----18-17-18----17-15-17----15-14-15----15-14-15----13-12-13--|
B|-----15----------------------15----------14----------13----------12----------11-----------|
G|------------------------------------------------------------------------------------------|
D|------------------------------------------------------------------------------------------|
A|------------------------------------------------------------------------------------------|
E|------------------------------------------------------------------------------------------|

e|-----13-12-13---12-10-12-12b13-10-12~----------------------10----12b13-13b12p10-12b13---|
B|--10----------9-----------------------13b15-15b13p10-13b15----10------------------------|
G|----------------------------------------------------------------------------------------|
D|----------------------------------------------------------------------------------------|
A|----------------------------------------------------------------------------------------|
E|----------------------------------------------------------------------------------------|

e|--10-----13b15-15b17-13b15-13h15p13p12h13p12------------------------------------------|
B|-----10---------------------------------------13----13-----14-14-15-16-16b17b16p15----|
G|-------------------------------------------------12----s12----------------------------|
D|--------------------------------------------------------------------------------------|
A|--------------------------------------------------------------------------------------|
E|--------------------------------------------------------------------------------------|

e|------------------15h17h18p17p15-----------------15h17h18p17p15-----------------------|
B|--15h17h18p17p15-----------------18p17p15h17h18------------------18p17p15h17h18-------|
G|--------------------------------------------------------------------------------------|
D|--------------------------------------------------------------------------------------|
A|--------------------------------------------------------------------------------------|
E|--------------------------------------------------------------------------------------|

e|--15h17h18p17p15-21b22--17-18-17-15-17-15----15----------------15-17-15----15----------|
B|------------------------------------------18----17-18-17-15-17----------18----17-18-17-|
G|---------------------------------------------------------------------------------------|
D|---------------------------------------------------------------------------------------|
A|---------------------------------------------------------------------------------------|
E|---------------------------------------------------------------------------------------|

e|--------------------------------------------------------------------------15b17-19b21-|
B|--15-17-15--------15--------------------------------------15b17-17b15-14--------------|
G|------------17-15----17-15h17p15-14-15-14h15p14---------------------------------------|
D|-------------------------------------------------17-15-14-----------------------------|
A|--------------------------------------------------------------------------------------|
E|--------------------------------------------------------------------------------------|

e|----------------------0h1p0------0----------------------------------------------------|
B|------------------3h5--------3p1---3p1------------------------------------------------|
G|---------------5-----------------------2--7-7-7-7-9s10---------9s10---------10s9------|
D|--8-8-8-8--5-5----------------------------7-7-7-7-9s10-8-8-8-8-9s10-5-5-5-5-10s9------|
A|--8-8-8-8--5-5----------------------------5-5-5-5-7s8--8-8-8-8-7s8--5-5-5-5-8s7-------|
E|--6-6-6-6--3-3-----------------------------------------6-6-6-6------3-3-3-3-----------|

e|--------------------------------------------------------------------------------------|
B|----------------------------------------------------------------2---------------------|
G|--5-5-5-5-9s10-7-7-7-7-9s10---------9s10-5-5-5-5-9-7-6-7-9-14---2---------------------|
D|--5-5-5-5-9s10-7-7-7-7-9s10-8-8-8-8-9s10-5-5-5-5-9-7-6-7-9-14---2---------------------|
A|--3-3-3-3-7s8--5-5-5-5-9s10-8-8-8-8-7s8--3-3-3-3-7-5-4-5-7-12---0---------------------|
E|----------------------------6-6-6-6---------------------------2~----------------------|

e|--------------------------------------------------------------------------------------|
B|--------------------------------------------------------------------------------------|
G|--------2-----------------------------------------------------------------------------|
D|--2-3-5---3-5-3-2-5-3-2h3p2---2-----------5-----------------------5-----5-----5-------|
A|----------------------------5---5-4---5-4---4-5-7-5-4-5-4-7-4-5-7---8-7---8-7---7-8---|
E|------------------------------------5-------------------------------------------------|

e|--------------------------------------------------------------------------------------|
B|--------------------------------------------------------------------------------------|
G|---------------------------------------------------------------------6~---6-7-7s9-7-6-|
D|--5-----5---7---7-8-78p7-5-7-5h7p5--------------------------------------7-------------|
A|----7-8---8---8--------------------8-10-8h10p8-7-8-7-5-5h7-5-4-4h7--------------------|
E|-------------------------------------------------------------------5------------------|

e|--------------------------------------------------------------------------------------|
B|--------------------------------------s10---10~---10-10b11-10---10--------------------|
G|----6-7-7s9-7-9-9s10-9-10-10s12-10-9~----9------9-------------9-----7-----------------|
D|--7-----------------------------------------------------------------7-----------------|
A|--------------------------------------------------------------------5-----------------|
E|--------------------------------------------------------------------------------------|


************************************

| \  Slide down
| h  Hammer-on
| p  Pull-off
| b  Bend
| ~  Vibrato
| s  

************************************

            
            
Suggest correction
Creating personal tab
Creating personal tab
You can edit any tab online and save it as your Personal.

You can edit, replace or remove any tab part or add personal notes – all changes will be seen only by you.

Personal tabs can be accessed anytime from any device, even offline.
Learn more »
comments
print report bad tab
1 comment total.
0 reply
elliottgreen01 10 Aug 18, 2017 04:11 PM

awesome

guest
You may want to rate the tab now too:
select rating
Wanna post a correction for this tab? Suggest correction