Oops, an error
Loading. Please wait.

Automatic Overdrive tab

version 1
version 1

Whole song

  • This is the whole entire song including the solo.

Interactive

by Slash
19,323 views 36 this week
6 commentsread comments
1 2 3 4 5
x 8
add to favorites
×
Save as Personal and add changes to this tab that will be seen only by you. Learn more ›
×
You can save this tab as Personal to edit and correct it or add notes. All changes will be seen only by you. Learn more »
launch autoscroll
font size
0
reset
how to read this tab
guitar tuner
edit
Autoscroll
slow
fast
+/-
esc
set tempo
stop
Author
-------------------------------------------------------------------------------
                             AUTOMATIC OVERDRIVE - Slash
-------------------------------------------------------------------------------
Tabbed by: Gu1tar K1d
E-mail: mussyjunior@hotmail.co.uk

Tuning: Standard

[Intro]
e|-------------------------|
B|-2-3-8-5-5-4-2-3-0-0-0-0-|
G|-2-4-9-6-6-4-2-4-1-0-1-0-|
D|-4-5-9-7-7-6-4-5-2-2-2-2-|
A|-------------------------|
E|-------------------------|

Strum each chord cleanly, and then chugg it into the next one. Tabbing it out exactly 
would take a lot of lines for a tiny segment of the song that you can pick up just by 
listening, so consider this a little challenge. :P

[Riff]
e|---------------------------------------------------------------------------|
B|-------1p0------------0----------------------------------------------------|
G|---2-------2------0-----2p0------0-----------------------------------------|
D|-----2-------2------0--------0-4---4p0-2-----------------------------------|
A|-0---------------------------------------3-2-0-----------------------------|
E|----------------3------------------------------3-x-3-3---------------------|
   A5             G5           D5              A5

Going into the verses, the 3 after the x becomes a 5, and slides into the 3.

[Verse]
e|-----------------|
B|-----------------|
G|-----------------|
D|---2p0-----------|
A|-------2p0----2--| x2
E|-0----------3----|
   E5

e|-----------------|
B|-----------------|
G|-----------------|
D|---2p0-----------|
A|-------2p0----2--| x2
E|-3----------3----|
   G5

e|-----------------|
B|-----------------|
G|-----------------|
D|-0-2p0-----------|
A|-------2p0----2--| x2
E|------------3----|
   D5

e|----------------0-0----------|
B|--------------------3-0------|
G|------------------------2p0-4|
D|---2p0-----------------------|
A|-------2p0----2--------------|
E|-0----------3----------------|
   E5

[Bridge]
e|-----------------------------|
B|-----------------------------|
G|-----------------------------|
D|-5-5-5-5-5-5-5-5-5-5-5-5-5-7-|
A|-3-3-3-3-3-3-3-3-3-3-3-3-3/5-|
E|-----------------------------|

[Pre-Solo]
e|-----------------------------|
B|-----------------------------|
G|-----------------------------|
D|------------------------0----|
A|-2-0-x-0h2-x-2~-------0------| x2
E|----------------0-1-2--------|
   B5

e|-----------------------------|
B|-----------------------------|
G|-----------------------------|
D|------------------------0----|
A|-4-2-x-2h4-x-4~-------0------| x1
E|----------------0-1-2--------|
   C#5

e|-----------------------------|
B|-----------------------------|
G|-----------------------------|
D|------------------------0----|
A|-2-0-x-0h2-x-2~-------0------| x1
E|----------------0-1-2--------|
   B5

[Solo]
On its way! The rhythm is the same as for the main riff: E5, G5, D5, E5. Improvise in Em 
pentatonic for now.

[Octaved Riff]
e|--------8-7------------7-5-------------------------------------------------|
B|---10-------10-----8-------8----7-8-7---5----------------------------------|
G|------9--------9-0---7--------7-------7----5-4-2-0-x-0-0-------------------|
D|-7-------------------------------------------------------------------------|
A|---------------------------------------------------------------------------|
E|---------------------------------------------------------------------------|

[Key-Changed Riff]
e|---------------------------------------------------------------------------|
B|--------3-2-----------2p0--------------------------------------------------|
G|---4--------4-----2-------2---1-2-1----------------------------------------|
D|-----4--------4-----2-------2-------2/4p0----------------------------------|
A|-2--------------0-------------------------4-2-0-x-0-0----------------------|
E|---------------------------------------------------------------------------|
   B5             A5            E5              B5

[Outro]
e|-------------0-0-----------------------------------------------------------|
B|-------------0-0-4---------------------------------------------------------|
G|-------------1-1-4---------------------------------------------------------|
D|-4-7-9-4-4-7-2-2-4-4\------------------------------------------------------|
A|-2-4-7-2-2-4-2-2-2-2\------------------------------------------------------|
E|-------------0-0-----------------------------------------------------------|

Structure:
[Intro]
[Riff]
[Verse]
[Bridge]
[Chorus/Riff]
[Verse]
[Bridge]
[Chorus/Riff]
[Pre-Solo]
[Solo]
[Octaved Riff]
[Chorus/Riff]
[Key-Changed Riff]
[Outro]
 

************************************

| x  Dead note
| h  Hammer-on
| p  Pull-off
| /  Slide up
| \  Slide down
| ~  Vibrato

************************************

            
            
Suggest correction
Creating personal tab
Creating personal tab
You can edit any tab online and save it as your Personal.

You can edit, replace or remove any tab part or add personal notes – all changes will be seen only by you.

Personal tabs can be accessed anytime from any device, even offline.
Learn more »
comments
print report bad tab
6 comments total. Showing first comments. show 1 bad comment
+5 reply
Gu1tar K1d 578 Sep 29, 2014 03:32 AM

Wrong. Entirely my own work, and if I were to copy you I would've done the entire song if it were available. You have no right, or grounds, on which to accuse me, so don't be butthurt.

0 reply
owen556 121 Oct 11, 2014 07:16 AM

...ok. Anyways I like the tab dude. Keep it up.

guest
You may want to rate the tab now too:
select rating
Wanna post a correction for this tab? Suggest correction