Oops, an error
Loading. Please wait.

Automatic Overdrive tab

version 2
version 2

Whole song

  • This is the whole entire song including the solo.

Interactive

by Slash
9,354 views 9 this week
9 commentsread comments
1 2 3 4 5
x 6
add to favorites
×
Save as Personal and add changes to this tab that will be seen only by you. Learn more ›
×
You can save this tab as Personal to edit and correct it or add notes. All changes will be seen only by you. Learn more »
launch autoscroll
font size
0
reset
how to read this tab
guitar tuner
edit
Autoscroll
slow
fast
+/-
esc
set tempo
stop
Author
Difficulty
intermediate
About this tab version
This is the whole entire song including the solo. Was this info helpful? Yes No
Slash - Automatic Overdrive Introduction
Standard - eBGDAE
Tabbed by: Jarad Foyle
Solo Tabbed By: szricsi

 [Introduction]
   F#M   G    E    A    A G# F#M   G    E    E E E    E E E    E E E    E E E    E E E
e|--2----3----0----5----5--4--2----3----0----0-0-0----0-0-0----0-0-0----0-0-0----0-0-0-|
B|--2----3----0----5----5--4--2----3----0----0-0-0----0-0-0----0-0-0----0-0-0----0-0-0-|
G|--2----4----1----6----6--5--2----4----1----1-1-1----1-1-1----1-1-1----1-1-1----1-1-1-|
D|--4----5----2----7----7--6--4----5----2----2-2-2----2-2-2----2-2-2----2-2-2----2-2-2-|
A|--4----5----2----7----7--6--4----5----2----2-2-2----2-2-2----2-2-2----2-2-2----2-2-2-|
E|--2----3----0----5----5--4--2----3----0----0-0-0----0-0-0----0-0-0----0-0-0----0-0-0-|

    A               G                                 A      *
e|---------------------------------------------------------------|
B|---------------------------------------------------------------|
G|--2----2--5/4p2p0-0----0--4p2p0-----------0---------2------2---| . x4
D|--2--2------------0--0----------0--4-0-4----4p0-----2-x----2---| .
A|--0---------------x-----------------------------3b--0-x----0---|
E|------------------3-----------------------------------x-3b---3b|

 [Verse]
    E              E              G             G
e|-------------------------------------------------------------|
B|-------------------------------------------------------------|
G|-------------------------------------------------------------|
D|--2-0h2p0--------2-0h2p0--------5-0h2p--------5-0h2p0--------|
A|--2-------2p0----2-------2p0----5------2p0----5-------2p0----|
E|--0----------3b--0-----------3b-3----------3b-3-----------3--|b

   D              D              E
e|--------------------------------------------------------|
B|--------------------------------------------------------|
G|-7--------------7----------------2-x-2-/9--7------------|
D|-7-0h2p0--------7-0h2p0--------x-2-x-2-------9-7--------|
A|-5-------2p0----5-------2p0----x-0-x-0-----------10-9-7-|
E|-------------3b-------------3b-x------------------------|

    E              E              G             G              D              D              E
e|----------------------------------------------------------------------------------------------------------|
B|----------------------------------------------------------------------------------------------------------|
G|-------------------------------------------------------------7--------------7-----------------------------|
D|--2-0h2p0--------2-0h2p0--------5-0h2p--------5-0h2p0--------7-0h2p0--------7-0h2p0--------2-0h2p0--------|
A|--2-------2p0----2-------2p0----5------2p0----5-------2p0----5-------2p0----5-------2p0----2-------2p0----|
E|--0----------3b--0-----------3b-3----------3b-3-----------3b-------------3b-------------3b-0-----------3b-|

  A  * * * * * *
e|---------------|
B|---------------|
G|2--2-2-2-2-2-2-|
D|2--2-2-2-2-2-2-|
A|0--0-0-0-0-0-0-|
E|---------------|

 [Chorus]
    A               G                                 A      *
e|-------------------------------------------------------------------|
B|-------------------------------------------------------------------|
G|--2----2--5/4p2p0-0----0--4p2p0-----------0---------2------2-------| x2
D|--2--2------------0--0----------0--4-0-4----4p0-----2-x----2-------| .
A|--0---------------x-----------------------------3b--0-x----0-------|
E|------------------3-----------------------------------x-3b---3-----|b

[Verse]
    E              E              G             G              D              D              E
e|-----------------------------------------------------------------------------------------------------------|
B|-----------------------------------------------------------------------------------------------------------|
G|------------------------------------------------------------7--------------7----------------2-x-2-/9--7----|
D|-2-0h2p0--------2-0h2p0--------5-0h2p--------5-0h2p0--------7-0h2p0--------7-0h2p0--------x-2-x-2------9-7-|
A|-2-------2p0----2-------2p0----5------2p0----5-------2p0----5-------2p0----5-------2p0----x-0-x-0----------|
E|-0----------3b--0-----------3b-3----------3b-3-----------3b-------------3b-------------3b-x----------------|

e|------|
B|------|
G|------|
D|------|
A|10-9-7|
E|------|

    E              E              G             G              D              D              E
e|----------------------------------------------------------------------------------------------------------|
B|----------------------------------------------------------------------------------------------------------|
G|-------------------------------------------------------------7--------------7-----------------------------|
D|--2-0h2p0--------2-0h2p0--------5-0h2p--------5-0h2p0--------7-0h2p0--------7-0h2p0--------2-0h2p0--------|
A|--2-------2p0----2-------2p0----5------2p0----5-------2p0----5-------2p0----5-------2p0----2-------2p0----|
E|--0----------3b--0-----------3b-3----------3b-3-----------3b-------------3b-------------3b-0-----------3b-|

  A  * * * * * *
e|---------------|
B|---------------|
G|2--2-2-2-2-2-2-|
D|2--2-2-2-2-2-2-|
A|0--0-0-0-0-0-0-|
E|---------------|

[Chorus]
    A               G                                 A      *
e|-------------------------------------------------------------------|
B|-------------------------------------------------------------------|
G|--2----2--5/4p2p0-0----0--4p2p0-----------0---------2------2-------| x2
D|--2--2------------0--0----------0--4-0-4----4p0-----2-x----2-------| .
A|--0---------------x-----------------------------3b--0-x----0-------|
E|------------------3-----------------------------------x-3b---3-----|b

Pre-Solo]
e|-----------------------------------------------------------------------------------------------------------|
B|-----------------------------------------------------------------------------------------------------------|
G|-----------------------------------------------------------------------------------------------------------|
D|-----------------------------------------------------------------------------------------------------------|
A|---0h5p0---------0h5p0---------0h7p0---------0h7p0-----0h7p0-----------0h7p0----------0h5p0----------------|
E|/7-------5h7--/7-------5h7--/9-------7h9--/9-------/10-------9h10--/10-------9h10--/7-------5h7--0--3--5--7|

e|-----------------------------------------------------------------------------------------------------------|
B|-----------------------------------------------------------------------------------------------------------|
G|-----------------------------------------------------------------------------------------------------------|
D|-----------------------------------------------------------------------------------------------------------|
A|---0h5p0---------0h5p0---------0h7p0---------0h7p0-----0h7p0-----------0h7p0----------0h5p0----------------|
E|/7-------5h7--/7-------5h7--/9-------7h9--/9-------/10-------9h10--/10-------9h10--/7-------5h7--0--3--5--7|

e|--------------|
B|--------------|
G|--------------|
D|x-9--x-9--x-9-|
A|x-9--x-9--x-9-|
E|x-7--x-7--x-7-|

[Solo]
     Q    Q    Q    E  E     E  E  E   E  E  E   E  E
e|--------------------0----L--0------0--0------0--0--|
B|--------------------0----L--0------0--0------0--0--|
G|-------------------------------2b--------2b--------|
D|---------------------------------------------------|
A|---------------------------------------------------|
E|---------------------------------------------------|

    E   E  E   E  E    S S E  E     E  E  E  E  E   E  E  E
e|------0------0--------------------------------------------|
B|------0------0----------------------0--2--0------0--1--2--|
G|--2b-----2b-----2br--2-0----0----L--0--2--0--2b-----------|
D|-------------------------2--------------------------------|
A|----------------------------------------------------------|
E|----------------------------------------------------------|

    E  Q    Q    Q    E      E  E  E  E  E  E  E  E
e|----------------------------------------------------|
B|--3--3----3----3----3-----L--------------------2br--|
G|-----4----4----4----3b----L--2--0-----0--2--0--2br--|
D|-----------------------------------2----------------|
A|----------------------------------------------------|
E|----------------------------------------------------|

    E  E  E  E  E  E  E   E     E  E   E  E   E  E    E   E
e|----------------------------------------------------------|
B|--2--0--------0--2--0-----------3------5------8-------10--|
G|--2--0--2-----0--2--0--/4----L-----/6-----/9-----/11------|
D|-----------2----------------------------------------------|
A|----------------------------------------------------------|
E|----------------------------------------------------------|

      E   E    E   E   E   E   E   E      E   E   E   Q      E   E   E
e|----------------------------12--12-----L--12--12--12-----12--12--12---|
B|-------12-------14--12--15------15b----L----------15b------------15b--|
G|--/12------/14--------------------------------------------------------|
D|----------------------------------------------------------------------|
A|----------------------------------------------------------------------|
E|----------------------------------------------------------------------|

    E   E   E   E   E     S  S  E   E      E   E   E   E   Q.       E
e|--L--12------------------------------------------------15b------15--|
B|--L------15--12-----------------------------------------------------|
G|-----------------14br--14-12-----12-----L--12--14--12---------------|
D|-----------------------------14-------------------------------------|
A|--------------------------------------------------------------------|
E|--------------------------------------------------------------------|

     E   E   S  S  Q      E.    E.
e|---L--15--12-15-14b----14b---14b---|
B|-----------------------------------|
G|-----------------------------------|
D|-----------------------------------|
A|-----------------------------------|
E|-----------------------------------|

                      |--3--|           |--3--|
     E     E   E   S  S  S  S  S  S  S  S  S  S  S  S
e|--14br--14--12--14-12-14-12----14----12-14-12----12-|
B|----------------------------15----15----------15----|
G|----------------------------------------------------|
D|----------------------------------------------------|
A|----------------------------------------------------|
E|----------------------------------------------------|

                        |--3--|
     E    S  S  S    S  S  S  S  S    S  S  S  S  S  E
e|-------12------------12-------------------------------|
B|--15b-----15------------15-12-------------------------|
G|-------------14br-14----------14br-14-12----14----12--|
D|-----------------------------------------14----14-----|
A|------------------------------------------------------|
E|------------------------------------------------------|

    E   E   E   E   E   E   E   E       E   E   E   E   E   E   E   E
e|----------------------------------------------------------------12--|
B|-----------------15--14--13---------13--15------------------12------|
G|--L--12--14--12--------------14b------------15--14--12--------------|
D|--------------------------------------------------------14----------|
A|--------------------------------------------------------------------|
E|--------------------------------------------------------------------|

    W
e|--L----------------|
B|-------------------|
G|-------------------|
D|-------------------|
A|-------------------|
E|-------------------|

[Verse 2]
e|--------8-7------------7-5--------------------------------|
B|---10-------10-----8-------8----7-8-7---5-----------------|
G|------9--------9-0---7--------7-------7----5-4-2-0-x-0-0--|
D|-7--------------------------------------------------------|
A|----------------------------------------------------------|
E|----------------------------------------------------------|

[Chorus]
    A               G                                 A      *
e|-------------------------------------------------------------------|
B|-------------------------------------------------------------------|
G|--2----2--5/4p2p0-0----0--4p2p0-----------0---------2------2-------| x2
D|--2--2------------0--0----------0--4-0-4----4p0-----2-x----2-------| .
A|--0---------------x-----------------------------3b--0-x----0-------|
E|------------------3-----------------------------------x-3b---3-----|b

e|-----------------------------------------------------------|
B|--------3-2-----------2p0----------------------------------|
G|---4--------4-----2-------2---1-2-1------------------------| x2
D|-----4--------4-----2-------2-------2/4p0------------------| .
A|-2--------------0-------------------------4-2-0-x-0-0------|
E|-----------------------------------------------------------|

[Outro]
    B    A    B    A    B
e|------------------------|
B|------------------------|
G|--4----2----4----2----4-|
D|--4----2----4----2----4-|
A|--2----0----2----0----2-|
E|------------------------|
x
Thank you, email me any suggestions to improve this tab, at: jaradjf@gmail.com, this is one of my first tabs,
15 years old.
If you would like to visually learn this, search 'Slash - Automatic Overdrive Guitar Cove

************************************

| p   Pull-off
| /   Slide up
| x   Dead note
| b   Bend
| h   Hammer-on
| br  Bend release

************************************

            
            
Suggest correction
Creating personal tab
Creating personal tab
You can edit any tab online and save it as your Personal.

You can edit, replace or remove any tab part or add personal notes – all changes will be seen only by you.

Personal tabs can be accessed anytime from any device, even offline.
Learn more »
comments
print report bad tab
9 comments total. Showing first comments.
0 reply
kralikervin 2,314 Dec 22, 2015 05:22 AM

Actually they play it in half step down, main riff starting from A#, on 6th fret. Gp5 version coming soon in January.

guest
You may want to rate the tab now too:
select rating
Wanna post a correction for this tab? Suggest correction