Oops, an error
Loading. Please wait.

Baby Cant Drive Tab

version 1
version 1

Whole song

Interactive

17,819 views 3 this week
4 commentsread comments
1 2 3 4 5
accurate
x 5
add to favorites
launch autoscroll
font size
0
reset
how to read this tab
guitar tuner
Tab Pro tools
  • play this tab
  • loop segment
  • change instrument
  • show fretboard
  • metronome
×
Best way to learn
"Baby Cant Drive"
Autoscroll
slow
fast
+/-
esc
set tempo
stop
Contributor
-------------------------------------------------------------------------------
                             BABY CAN'T DRIVE - Slash, Alice Cooper & Nicole Scherzinger
-------------------------------------------------------------------------------

Hullo thar. :). I thought I would tab out all I've worked out from Baby Can't 
Drive from Slash's self-titled album, because I have too much time on my hands and 
the song is awesome. I'm gonna tab out each bit, and put the structure at the end, 
as it's simpler that way. SO.

UPDATED: 26/5/12. Slight changes to main riff and verse riff.

Part A:

e|--------------------------------|
B|-----------------0-2------------|
G|-----------------0-2------------| x8
D|-----------0h2----------0-----2-|
A|-----------0h2-------0~---2-----|
E|-0-3b3.5p0-----0------------3---|

Part B:

e|-----------------------------|
B|-----------------------------|
G|-------------0h1-------------| x4
D|-----------------2---0-----2-|
A|-------2-4---------2---2-----|
E|-0-3-4-----0-------------3---|

Palm mute all the notes except the 0h1 hammer on on the G, but not very heavily!

Part C:

e|-----------------------------------------------|
B|-----------------------------------------------|
G|-----------------------------------------------|
D|-4~-3~-7~~-4~-3~-2-2-2-2-2-2-2-2-2-2-2-2-2-2-2-|
A|-4~-3~-7~~-4~-3~-2-2-2-2-2-2-2-2-2-2-2-2-2-2-2-|
E|-2~-1~-5~~-2~-1~-0-0-0-0-0-0-0-0-0-0-0-0-0-0-0-|

Palm mute the E powerchords.

Part D:

e|------------------------------|
B|---------------0h2------------|
G|---------------0h2---5s7-7~---| x4
D|-------2-------------5s7-7~---|
A|-3b3.5-0-3b3.5-----0-3s5-5~---|
E|------------------------------|

Part E:

e|---------------------------------------------------------------------------|
B|-7-x-7-x-7-5---6~-----8-6h8---7-x-7-x-7-----10~-12~-10/--------------------|
G|-7-x-7-x-7-5------7-5-------7-----------7-5-10~-12~-11/--------------------|
D|-------------7-------------------------------------------------------------|
A|---------------------------------------------------------------------------|
E|---------------------------------------------------------------------------|

Part F:

e|---------------------------------------------------------------------------|
B|---------------------------------------------------------------------------|
G|---------------------------------------------------------------------------|
D|-5-x-5-x-5-x-5-x-4-x-4-x-4-x-4-x-2-x-2-x-2-x-2-x---------------------------|
A|-3-x-3-x-3-x-3-x-2-x-2-x-2-x-2-x-0-x-0-x-0-x-0-x---------------------------|
E|---------------------------------------------------------------------------|

e|---------------------------------------------------------------------------|
B|---------------------------------------------------------------------------|
G|---------------------------------------------------------------------------|
D|-5-x-5-x-5-x-5-x-4-x-4-x-4-x-4-x-2-2-2-2-2-2-2-2-2-2-2-2-2-----------------|
A|-3-x-3-x-3-x-3-x-2-x-2-x-2-x-2-x-2-2-2-2-2-2-2-2-2-2-2-2-2-----------------|
E|---------------------------------0-0-0-0-0-0-0-0-0-0-0-0-0-----------------|

Part G

Go nuts. Eight bars in A minor pentatonic, 4 bars in D minor pentatonic, 4 bars in 
E penatatonic. Make sure you wind up on an A note at the end of your solo in E.

The Structure:

Part A
Part B
Part C
Part D
Part E
Part B
Part C
Part D
Part F
Part G
Part D
Part D

Have fun with this. :)
comments
print report bad tab
4 comments total. Showing first comments.
0 reply
littlerocker141 wrote on July 11 2010, 01:31 pm

What does . mean?

0 reply
Bimpy666 wrote on July 23 2010, 05:07 am

littlerocker i think it just means bend half a step

0 reply
Gu1tar K1d wrote on June 19 2011, 09:04 am

Yeah it does, it's a quarter-step bend.

I want to post or [tab]
guest
You may want to rate the tab now too:
select rating
Please do not post tabs as comments. Select "correction" instead!