Oops, an error
Loading. Please wait.

Baby Cant Drive Tab

version 2
version 2

Whole song

Interactive

455 views 1 this week
no commentswrite comment
1 2 3 4 5
3 more votes to show rating
add to favorites
launch autoscroll
font size
0
reset
how to read this tab
guitar tuner
Autoscroll
slow
fast
+/-
esc
set tempo
stop
Help us to improve Ultimate-Guitar.com Take our survey!
×
Author
Difficulty
intermediate
-------------------------------------------------------------------------------
                             Baby can't drive - Slash
-------------------------------------------------------------------------------
Tabbed by: Wojtek180789
E-mail:wojtek180789@gmail.com

Hey dudes, thanks to the youtube and a little bit of pratice I finally managed to
nail the basic parts of this one bad ass song. This is my first tab eva. It's with a 
little bit of soloing,
but still the solo is far from perfect. Anyway enjoy.

Tuning:standard

intro
e|------------------------------|
B|------------------------------|
G|------------------------------|
D|--2---------0-2-2--0----------|x8
A|--2---------0-2-2----2--------|
E|--0-3-5p0-0------------3-0----|

riff1 all notes are P.M exept the 0h1
e|----|----------------------------|
B|----|----------------------------|
G|----|-----------0h1--------------|
D|----|---------------2---0--------|x4(the box part)
A|--2-|2----2-4---------2---2------|
E|--0-|0-3-4-----0-------------3-0-|

riff2 two ways of playing it:
e|---------------------------------------------------------------------|
B|---------------------------------------------------------------------|
G|---------------------------------------------------------------------|
D|--4~--3~----7~---4~---3~-----2-2-2-2-2-2-2-2-------------------------|
A|--4~--3~----7~---4~---3~-----2-2-2-2-2-2-2-2-------------------------|
E|--2~--1~----5~---2~---1~-----0-0-0-0-0-0-0-0till the end of this riff|

riff2*
or this way:
e|----------------------------------------------------------------|
B|----------------------------------------------------------------|
G|----------------------------------------------------------------|
D|--4-4-xx-44-3--xx--3-----7~---4-4-xx-44-3--xx--3-----2222222222-|
A|--4-4-xx-44-3--xx--3-----7~---4-4-xx-44-3--xx--3-----2222222222-|
E|--2-2-xx-22-1--xx--1-----5~---2-2-xx-22-1--xx--1-----0000000000-|
strum E chord until end of this section


riff3
and now the best part of this whole song, this riff is a killer:
e|---------------------------------------|
B|---------------------------------------|
G|--2--------2---5--7-7--7b5p0-----------|
D|--2--------2---5--7-7--7b5p0-----------|x4
A|--0-3p0----0---------------------------|
E|---------3-----------------------------|

e|-------------------------------------------------------|
B|----7-7-7\5-x-6-x-8-6h8p6-----7-7-7\5--10--12----------|
G|----7-7-7\5-x-5-x-7-------7---7-7-7\5--10--12----------|
D|-------------------------------------------------------|
A|-------------------------------------------------------|x1
E|-------------------------------------------------------|

riff1 x4
riff2 x1
riff3 x4
not sure of this bit:
e|--------------------------------------------|----|
B|--------------------------------------------|----|
G|----7-7-7-7-----------------7-7-7-7---------|----|
D|----7-7-7-7-7-7-7-7-7-7-7-7-7-7-7-7-7-7-7-7-|2-2-|strum the E chord
A|------------7-7-7-7-7-7-7-7---------7-7-7-7-|2-2-|
E|--------------------------------------------|0-0-|


Solo:
It misses some parts, but still I tried the best I could


this bit is in A minor pentatonic:
2:11-2:14
e|--------------------|
B|----------8b--------|
G|------5-7-----------|
D|---/7---------------|
A|--------------------|
E|--------------------|

it's an descending lick 2:17-2:20
e|--------------------------------------------------|
B|-------5h8p5--------------------------------------|
G|----7b-------7bp5---7p5---------------------------|
D|-----------------7------7p5-----------------------|
A|----------------------------7p6p5\3-5p3-----------|
E|----------------------------------------+5~-------|

then ascending lick 2:20-2:25(i'm not 100% sure about this lick)
e|--------------------------------------------------5-8b-8b-8-5h8p5---------8b-8b----|
B|------------------------------------------5h8p5-------------------8p5--------------|
G|------------------------------5h7p5---5-7-------7---------------------7p5----------|
D|------------------5h7p5---5-7-------7----------------------------------------------|
A|----3h5p3---3-5/7-------7----------------------------------------------------------|
E|--5-------5------------------------------------------------------------------------|
next lick is in D pentatonic(try to go wild for a bit)
then at 2:31-2:35
e|-------------------------------------------------------|
B|-------12-12-----12-12-----12------------------15b-15b-|
G|---14b-------14b-------14b----14bp12-------------------|
D|-------------------------------------14p12h14----------|
A|-------------------------------------------------------|
E|-------------------------------------------------------|

then you play some descending lick in E minor pentatonic till 2:38


riff3 x4

outro:
e|--5-5-5-|
B|--5-5-5-|
G|--------|
D|--------|
A|--------|till end get a feel for the timing and enjoy
E|--------|



cheers mates!
************************************

| /   slide up
| \   slide down
| h   hammer-on
| p   pull-off
| ~   vibrato
| +   harmonic
| x   Mute note
| b   Bend
| pb  Pre-bend
| br  Bend release
| pbr Pre-bend release
| brb Bend release bend

************************************
Suggest correction
Give kudos to tab author, rate the tab!
1 2 3 4 5
comments
print report bad tab
guest
You may want to rate the tab now too:
select rating
Wanna post a correction for this tab? Suggest correction