Oops, an error
Loading. Please wait.

Back From Cali Bass Tab

version 1
version 1

Whole song

Interactive

8,043 views 1 this week
2 commentsread comments
1 2 3 4 5
x 7
add to favorites
launch autoscroll
font size
0
reset
guitar tuner
Autoscroll
slow
fast
+/-
esc
set tempo
stop
Help us to improve Ultimate-Guitar.com Take our survey!
×
Author
----------------------------------------------------------------------------
		    Back From Cali - Slash + Myles Kennedy
----------------------------------------------------------------------------

Tabbed By : Izifix

Tuning:  Standard

    [                          x2                           ]
G|-------------------------------------------------------------------------|
D|-----------------0----------------------------2--0---0-------------------|
A|-----2----0--2h-----2---0--2--0-------------------------0----------------|
E|---------------------------------0-----0--2h-----------------------------|
  Start at 0:32

    [               x3             ]  [         x1         ]
G|-------------------------------------------------------------------------|
D|------------------------------------------------------0------------------|
A|------2----0--2h---2-2--0--2-0--------2----0--2h---2---------------------|
E|-------------------------------2-----------------------------------------|
  Start at 0:47                        At 0:57

   [                     x1                       ]
G|-------------------------------------------------------------------------|
D|----------------0---0--0--------------0---0------------------------------|
A|---------------------------------------------0---------------------------|
E|-----0---0--0--------------0---0--0--------------------------------------|
   Start at 1:01
  
    [                         x4                            ]
G|-------------------------------------------------------------------------|
D|-----------------0----------------------------2--0---0-------------------|
A|-----2----0--2h-----2---0--2--0-------------------------0----------------|
E|---------------------------------0-----0--2h-----------------------------|
   Start at 1:08

   [                         x3                           ]
G|-------------------------------------------------------------------------|
D|-------------------------------------------------------------------------|
A|---------------5---------------------------------------------------------|
E|-----3---3-3-3----5-5--5--5-5-5/-7---5-7h-5-7-5-7--7-6-5----------------|
   Start at 1:37

   [                         x1                       ]
G|-------------------------------------------------------------------------|
D|-------------------------------------------------------------------------|
A|---------------5---------------------------------------------------------|
E|-----3---3-3-3----5-5--5--5-5--4--4-4--5--5-5--5--3----------------------|
   Start at 1:58

   [                           x2                              ]
G|-------------------------------------------------------------------------|
D|------------------------------------------------2--0---0-----------------|
A|-----2----0--2h--0--2---0-2---0-2-0-----------------------0-----2\-------|
E|-------------------------------------0----0-2h---------------------------|
   Start at 2:05

   [                           x4                              ]
G|-------------------------------------------------------------------------|
D|-----------------0----------------------------2--0---0-------------------|
A|-----2----0--2h-----2---0--2--0-------------------------0----------------|
E|---------------------------------0-----0--2h-----------------------------|
   Start at 2:34

   [                      x2                           ]
G|-------------------------------------------------------------------------|
D|-----------------------------------------------/9\-----------------------|
A|-----2-2---0-2h---2--0-2--0-2-0----2-2---0-2h----------------------------|
E|-------------------------------------------------------------------------|
   Start at 3:02

G|-------------------------------------------------------------------------|
D|-------------------------------------------------------------------------|
A|-----------------5-5---------------7-7-----------------------------------|
E|---3-3-3-3-3-3-3-----5-5-5-5-5-5-5-----7---\-----------------------------|
   Start at 3:17

| /  slide up
| \  slide down
| h  hammer-on
| p  pull-off
| ~  vibrato
| +  harmonic
| x  Mute note
===============================================================================
Suggest correction
comments
print report bad tab
2 comments total.
0 reply
morlinosrock73 10 Feb 20, 2013 09:40 PM

its not bad, im not great it helped me

0 reply
aciebel 35 Mar 13, 2015 03:26 PM

I might be wrong but I think it's E|0---0--2h4- instead of E|0-----0h2- in the verse and chorus. Also in the last part of the bridge you put 5-5--5--5-5--4--4-4--5--5-5--5--3 but I'm pretty sure it's 5-5--5--5-5--2--2-2--5--5-5--5--3. Sorry if I'm wrong, but those 4's just sound completely off. Some other minor things where the number of times a note is played isn't 100%, but this helped me get the general idea behind the song, for which I'm grateful! 4/5 from me :)

guest
You may want to rate the tab now too:
select rating
Wanna post a correction for this tab? Suggest correction