Oops, an error
Loading. Please wait.

Back From Cali Ukulele Chords

version 1
version 1

Whole song

Interactive

219 views 3 this week
no commentswrite comment
1 2 3 4 5
please rate
add to favorites
launch autoscroll
font size
0
reset
transpose
0
reset
display chords
guitar tuner
Autoscroll
slow
fast
+/-
esc
set tempo
stop
Help us to improve Ultimate-Guitar.com Take our survey!
×
------------------------------------------------------------------------------
                             Back From Cali - Slash
-------------------------------------------------------------------------------

Tuning: Standard 

Intro, Verse:

e|---------------------------------------------------------------------------|
B|----------------3----------------------------------5-\--3--3---------------|
G|-----2--4-------4---4--2--4--2------1--------------4-\--2--2---2-----------|
D|-4----------------------------------2------4--6----------------------------|
A|-2----------------------------------------------------------------0--------|
E|---------------------------------------------------------------------------|

e|---------------------------------------------------------------------------|
B|----------------3----------------------------------5-\--3--3---------------|
G|-----2--4-------4---4--2--4--2------4--------------4-\--2--2---2-----------|
D|-4----------------------------------2------4--6----------------------------|
A|-2----------------------------------------------------------------0--------|
E|---------------------------------------------------------------------------|


Chorus:

e|---------------------------------------------------------------------------|
B|------------------3--------------------------------------------------------|
G|---4----2----4----2----4----2----4----2------------------------------------|
D|---4----2----4----0----4----2----4----2----2---2----------2--0---0---------|
A|---2----0----2---------2----0----2----0----2---2----------------------0----|
E|-------------------------------------------0---0----2--4-------------------|


Interlude:

e|---------------------------------------------------------------------------|
B|-3-3-3---0-----0------3-3----3-3-3-3-------0-----0------3-3----3-3-3-3-3---|
G|-2-2-2---1-----1------2-2----2-2-2-2-------1-----1------2-2----2-2-2-2-2---|
D|-0-0-0---2-----2------0-0----0-0-0-0-------2-----2------0-0----0-0-0-0-0---|
A|---------2-----2---------------------------2-----2-------------------------|
E|---------------------------------------------------------------------------|




Bridge:

e|---------------------------------------------------------------------------|
B|---------------------------------------------------------------------------|
G|---------------------------------------------------------------------------|
D|----5--5--5-5---5h7--7--7---x-x-x-9--7h9--7h9---7h9---9--8--7--------------| X 3
A|----5--5--5-5---5h7--7--7---x-x-x-9--7h9--7h9---7h9---9--8--7--------------|
E|----3--3--3-3---5----5--5---x-x-x-7--7----7-----7-----7--6--5--------------|

e|---------------------------------------------------------------------------|
B|---------------------------------------------------------------------------|
G|---------------------------------------------------------------------------|
D|----5--5--5-5---5h7--7--7-7----4--4--4-4---7-7--x-x-x----------------------|
A|----5--5--5-5---5h7--7--7-7----4--4--4-4---7-7--x-x-x----------------------|
E|----3--3--3-3---5----5--5-5----2--2--2-2---5-5--x-x-x----------------------|




Solo:

e|--------------------------------------------------------7\5----------------|
B|-----9b-(9)---9b--9b---9b---------9-9-------------------------7--5---5-----|
G|-----9b-(9)---9b--9b---9b-9----7--9-9---7---7--9---------------------------|
D|------------------------------------------9--------------------------------|
A|---------------------------------------------------------------------------|
E|---------------------------------------------------------------------------|




e|----------------------------10---------------------------------------------|
B|-----5h7p5------3-------12-------12--17b--r17--15---12-10--15b~~~\0--------|
G|---------------------------------------------------------------------------|
D|---------------------------------------------------------------------------|
A|---------------------------------------------------------------------------|
E|---------------------------------------------------------------------------|

e|--------------19--17-----17------------------------------------------------|
B|---17----19b----------19--------17--16-------------------------------------|
G|----------------------------18---------------------------------------------|
D|---------------------------------------------------------------------------|
A|---------------------------------------------------------------------------|
E|---------------------------------------------------------------------------|


Outro:

e|---------------------------------------------------------------------------|
B|---------------------------------------------------------------------------|
G|---4--4--2--4--2--4-----2-4---2-4------------------------------------------|
D|---4--4--2--4--2--4-----2-4---2-4------------------------------------------| X 3
A|---2--2--0--2--0--2-----0-2---0-2------------------------------------------|
E|---------------------------------------------------------------------------|

e|---------------------------------------------------------------------------|
B|---------------------------------------------------------------------------|
G|---------------------------------------------------------------------------|
D|---5--5--5--5--5--5---5-5-5----7--7--7--7--7--7-7-----9--------------------|
A|---5--5--5--5--5--5---5-5-5----7--7--7--7--7--7-7-----9--------------------|
E|---3--3--3--3--3--3---3-3-3----5--5--5--5--5--5-5-----7--------------------|







************************************

| /   slide up
| \   slide down
| h   hammer-on
| p   pull-off
| ~   vibrato
| x   Mute note
| b   Bend
| r   release
| brb Bend release bend

************************************    
Suggest correction
Give kudos to tab author, rate the tab!
1 2 3 4 5
comments
print report bad tab
guest
You may want to rate the tab now too:
select rating
Wanna post a correction for this tab? Suggest correction