Oops, an error
Loading. Please wait.

Back From Cali Bass Tab

version 2
version 2

Whole song

Interactive

569 views 1 this week
3 commentsread comments
1 2 3 4 5
accurate
x 3
add to favorites
launch autoscroll
font size
0
reset
guitar tuner
Autoscroll
slow
fast
+/-
esc
set tempo
stop
Help us to improve Ultimate-Guitar.com Take our survey!
×
Author
i tuned this in Drop D so that there was no need to change tunings between songs

0:27
G|-----------------------------------------------------------------|
D|-----------------0-----------------------2-----0-2-0---0---------|
A|-2-----2-0h2-------2---0---2-0-------------------------------0---|
D|---------------------------------2-----2-----2-------------4-----|
   1 + 2 + 3 + 4 + 1 + 2 + 3 + 4 + 1 + 2 + 3 + 4 + 1 + 2 + 3 + 4 +

G|-----------------------------------------------------------------|
D|-----------------0-----------------------2-----0-2-0---0---------|
A|-2-------0h2-------2-2-0---2-0-0-----------------------------0---|
D|---------------------------------2-----2-----2-------------4-----|
   1 + 2 + 3 + 4 + 1 + 2 + 3 + 4 + 1 + 2 + 3 + 4 + 1 + 2 + 3 + 4 +

0:43
G|-----------------------------------------------------------------|
D|-----------------------------------------------------------------|
A|-2-------0h2-------------0-2-2-0-2-------0h2-------2-2---0-2-2-0-|
D|-----------------------------------------------------------------|
   1 + 2 + 3 + 4 + 1 + 2 + 3 + 4 + 1 + 2 + 3 + 4 + 1 + 2 + 3 + 4 +

G|-----------------------------------------------------------------|
D|-----------------------------------------------------------------|
A|-2-------0h2-------2-2---0-2-2-0-2-------0h2-----------5-----5---|
D|-----------------------------------------------------------------|
   1 + 2 + 3 + 4 + 1 + 2 + 3 + 4 + 1 + 2 + 3 + 4 + 1 + 2 + 3 + 4 +

0:55
G|-----------------------------------------------------------------|
D|-----------------------------------------------------------------|
A|-------------------5---5---5-5---------------------5---5---5-0---|
D|-2-------2---2-------------------2-------2-----2-----------------|
   1 + 2 + 3 + 4 + 1 + 2 + 3 + 4 + 1 + 2 + 3 + 4 + 1 + 2 + 3 + 4 +

1:03
G|-----------------------------------------------------------------|
D|-----------------0-----------------------2-----0-2-0---0---------|
A|-2-----2-0h2-------2-2-0---2---------------------------------0---|
D|-----------------------------7-\-2-----2-----2-------------4-----|
   1 + 2 + 3 + 4 + 1 + 2 + 3 + 4 + 1 + 2 + 3 + 4 + 1 + 2 + 3 + 4 +

G|-----------------------------------------------------------------|
D|-----------------0-----------------------------0-2-0---0---------|
A|-2-----2-0h2-2-2---2-2-0---2-0-------------------------------0-0-|
D|---------------------------------2-----2-2---2-------------4-----|
   1 + 2 + 3 + 4 + 1 + 2 + 3 + 4 + 1 + 2 + 3 + 4 + 1 + 2 + 3 + 4 +

1:18
G|-----------------------------------------------------------------|
D|-----------------0-----------------------2-----0-2-0---0---------|
A|-2-----2-0h2-------2-2-0---2---------------------------------0---|
D|-----------------------------7-\-2-----2-----2-------------4-----|
   1 + 2 + 3 + 4 + 1 + 2 + 3 + 4 + 1 + 2 + 3 + 4 + 1 + 2 + 3 + 4 +

G|-----------------------------------------------------------------|
D|-----------------0-----------------------2-----0-2-0---0---------|
A|-2-----2-0h2-2-2---2-2-0---2---------------------------------0---|
D|-----------------------------7-\-2-----2-----2-------------4-----|
   1 + 2 + 3 + 4 + 1 + 2 + 3 + 4 + 1 + 2 + 3 + 4 + 1 + 2 + 3 + 4 +

1:33
G|-----------------------------------------------------------------|
D|-----------------------------------------------------------------|
A|-------------------5-0---0---0-0-2---2---0-2-0-2---0-2---2-0-----|
D|-5---5---5---5-5-----------5---------------------------------5-4-|
   1 + 2 + 3 + 4 + 1 + 2 + 3 + 4 + 1 + 2 + 3 + 4 + 1 + 2 + 3 + 4 +

G|-----------------------------------------------------------------|
D|-----------------------------------------------------------------|
A|-------------------5-0-0-0-5-0-0-2---2---0-2-0-2---0-2---2-0-----|
D|-5---5---5---5-5---------------------------------------------5-4-|
   1 + 2 + 3 + 4 + 1 + 2 + 3 + 4 + 1 + 2 + 3 + 4 + 1 + 2 + 3 + 4 +

G|-----------------------------------------------------------------|
D|-----------------------------------------------------------------|
A|-------------------5-0---0-------2---2---0-2-0-2---0-2---2-0-----|
D|-5---5---5---5-5-----------5-2-2-----------------------------5-4-|
   1 + 2 + 3 + 4 + 1 + 2 + 3 + 4 + 1 + 2 + 3 + 4 + 1 + 2 + 3 + 4 +

G|-----------------------------------------------------------------|
D|-----------------------------------------------------------------|
A|-------------------5-0---0-------------------------0-0-0-0-------|
D|-5---5---5---5-5-----------5-2-2-4---4---4---4---4---------4-4-4-|
   1 + 2 + 3 + 4 + 1 + 2 + 3 + 4 + 1 + 2 + 3 + 4 + 1 + 2 + 3 + 4 +

2:04
G|-----------------------------------------------------------------|
D|-----------------------------------------2-----0-2-0-0-0-0-------|
A|-2---2---0-2-0-2---0-2---0-2-2-0-----------------------------0-0-|
D|---------------------------------2---2-------2-------------4-----|
   1 + 2 + 3 + 4 + 1 + 2 + 3 + 4 + 1 + 2 + 3 + 4 + 1 + 2 + 3 + 4 +

G|---------------------------------------------------------------------------------|
D|-----------------------------------------2-----0-2-0-0-0-0-0---------------------|
A|-2---2---0-2---2---0-2---0h2-2-0-----------------------------0-0-----------------|
D|---------------------------------2---2-------2-------------------9---\---\---\---|
   1 + 2 + 3 + 4 + 1 + 2 + 3 + 4 + 1 + 2 + 3 + 4 + 1 + 2 + 3 + 4 +

rest

2:34
G|-----------------------------------------------------------------|
D|-----------------0-----------------------2-----0-2-0---0---------|
A|-2-----2-0h2-2-2---2-2-0---2---------------------------------0---|
D|-----------------------------7-\-2-----2-----2-------------4-----|
   1 + 2 + 3 + 4 + 1 + 2 + 3 + 4 + 1 + 2 + 3 + 4 + 1 + 2 + 3 + 4 +

G|-----------------------------------------------------------------|
D|-----------------0-----------------------2-----0-2-0---0---------|
A|-2-----2-0h2-------2-2-0---2---------------------------------0-0-|
D|-----------------------------7-\-2-----2-----2-------------4-----|
   1 + 2 + 3 + 4 + 1 + 2 + 3 + 4 + 1 + 2 + 3 + 4 + 1 + 2 + 3 + 4 +

2:48
G|-----------------------------------------------------------------|
D|-----------------0-----------------------2-----0-2-0---0---------|
A|-2-----2-0h2-------2-2-0---2---------------------------------0---|
D|-----------------------------7-\-2-----2-----2-------------4-----|
   1 + 2 + 3 + 4 + 1 + 2 + 3 + 4 + 1 + 2 + 3 + 4 + 1 + 2 + 3 + 4 +

G|-----------------------------------------------------------------|
D|-----------------0-----------------------2-----0-2-0---0---------|
A|-2-----2-0h2-------2-2-0---2---------------------------------0-0-|
D|-----------------------------7-\-2-----2---2-2-------------4-----|
   1 + 2 + 3 + 4 + 1 + 2 + 3 + 4 + 1 + 2 + 3 + 4 + 1 + 2 + 3 + 4 +

3:03
G|-----------------------------------------------------------------|
D|----------------------------------------------/-9--9-9---9-9-9---|
A|-2---2---0-2---2---0-2---0-2-2-0-2---2---2-2-------------------9-|
D|-----------------------------------------------------------------|
   1 + 2 + 3 + 4 + 1 + 2 + 3 + 4 + 1 + 2 + 3 + 4 + 1 + 2 + 3 + 4 +

G|-----------------------------------------------------------------|
D|----------------------------------------------/-9--9-9---9-7-----|
A|-2---2---0-2---2---0-2---0-2-2-0-2---2---2-2-----------------9-7-|
D|-----------------------------------------------------------------|
   1 + 2 + 3 + 4 + 1 + 2 + 3 + 4 + 1 + 2 + 3 + 4 + 1 + 2 + 3 + 4 +

3:18
G|---------------------------------------------------------------------|
D|---------------------------------------------------------------------|
A|---------------------------5-5-5-0---0---0---0---0-0-0---0-7-7-7-2---|
D|-5---5---5-----5-5---5---5-------------------------------------------|
   1 + 2 + 3 + 4 + 1 + 2 + 3 + 4 + 1 + 2 + 3 + 4 + 1 + 2 + 3 + 4 +

Tabbed by Dave Vucko
Suggest correction
Give kudos to tab author, rate the tab!
1 2 3 4 5
comments
print report bad tab
3 comments total.
-1 reply
kellynickels 3,013 wrote on March 12 2013, 11:38 am

It's half step down

+1 reply
romariolf 10 wrote on September 12 2013, 10:43 pm

no, it isn't.

0 reply
KennyM79 2,228 wrote on May 14 2015, 09:15 am

It's actually in Standard. I'm not sure how this person didn't figure that out.

guest
You may want to rate the tab now too:
select rating
Wanna post a correction for this tab? Suggest correction