Oops, an error
Loading. Please wait.

Back From Cali Tab

version 2
version 2

Whole song

Interactive

33,857 views 19 this week
2 commentsread comments
1 2 3 4 5
excellent!
x 14
add to favorites
launch autoscroll
font size
0
reset
how to read this tab
guitar tuner
Tab Pro tools
  • play this tab
  • loop segment
  • change instrument
  • show fretboard
  • metronome
×
Best way to learn
"Back From Cali"
Autoscroll
slow
fast
+/-
esc
set tempo
stop
Contributor
Difficulty
intermediate
Slash
Back From Cali
Full Tab!
Tuning Standard EBGDAE
Transcribed by GNR87roxs

Intro, Verse: Its also Finger picked w/ a little distortion.
4 Times
e|----------------------------------------------------------------------|
B|----------------------------------------------5\---3--3---------------|
G|-4---2h-4----7p--4--4--2h-4----1--------------4-\--2--2---2-----------|
D|-4---4--4----4---4--4--4--4----2------4h-6----------------------------|
A|-----------------------------------------------------------------0----|
E|----------------------------------------------------------------------|

Chorus:

e|--------------------------------------------------------------------------|
B|-----------------3--------------------------------------------------------|
G|---4---2----4----2----4----2----4----2------------------------------------|
D|---4---2----4----0----4----2----4----2----2---2----------2--0---0--0------|
A|---2---0----2---------2----0----2----0----2---2----------------------0----|
E|------------------------------------------0---0----2h-4-------------------|

Bridge:

e|---------------------------------------------------------------------------|
B|---------------------------------------------------------------------------|
G|---------------------------------------------------------------------------|
D|-5--5--5-5---5h7--7--7---x-x-x-9--7h9--7h9---7h9---9--8--7-----------| X 3-|
A|-5--5--5-5---5h7--7--7---x-x-x-9--7h9--7h9---7h9---9--8--7-----------------|
E|-3--3--3-3---3-5--5--5---x-x-x-7--7----7-----7-----7--6--5-----------------|

e|--------------------------------------------------------------------------|
B|--------------------------------------------------------------------------|
G|--------------------------------------------------------------------------|
D|---5--5--5-5---5h7--7--7-7----4--4--4-4---7-7--x-x-x----------------------|
A|---5--5--5-5---5h7--7--7-7----4--4--4-4---7-7--x-x-x----------------------|
E|---3--3--3-3---5----5--5-5----2--2--2-2---5-5--x-x-x----------------------|

Solo:

e|-------------------------------------------------------7\5----------------|
B|----9b-(9)---9b--9b---9b---------9-9-------------------------7--6--5------|
G|----9b-(9)---9b--9b---9b-9----7--9-9---7---7--9--7------------------------|
D|-----------------------------------------9----------9---------------------|
A|--------------------------------------------------------------------------|
E|--------------------------------------------------------------------------|


e|---------------------------10---------------------------------------------|
B|----5h7p5--5---3-------12-------12--17b--r15---12------15b~~~\0-----------|
G|---------------------------------------------------13---------------------|
D|--------------------------------------------------------------------------|
A|--------------------------------------------------------------------------|
E|--------------------------------------------------------------------------|

e|-------------19--17------17-----------------------------------------------|
B|--------19b----------19-----------17--16b---------------------------------|
G|-----------------------------18-------------------------------------------|
D|--------------------------------------------------------------------------|
A|--------------------------------------------------------------------------|
E|--------------------------------------------------------------------------|

Outro:
3x
e|--------------------------------------------------------------------------|
B|--------------------------------------------------------------------------|
G|--4--4--2--4--2--4-----2-4---2-4------------------------------------------|
D|--4--4--2--4--2--4-----2-4---2-4------------------------------------------|
A|--2--2--0--2--0--2-----0-2---0-2------------------------------------------|
E|--------------------------------------------------------------------------|

e|--------------------------------------------------------------------------|
B|--------------------------------------------------------------------------|
G|--------------------------------------------------------------------------|
D|--5--5--5--5--5--5---5-5-5----7--7--7--7--7--7-7-----9--------------------|
A|--5--5--5--5--5--5---5-5-5----7--7--7--7--7--7-7-----9--------------------|
E|--3--3--3--3--3--3---3-3-3----5--5--5--5--5--5-5-----7--------------------|
comments
print report bad tab
2 comments total.
0 reply
Chickenboot wrote on January 8 2011, 10:48 am

This looks very good, but on the second run of the intro, it should change slightly, like this.

e|---------------------------------------------------------|
B|-------------------------------------------5\---3--3-----|
G|-4---2h-4---7p--4--4--2h-4----4------------4-\--2--2--2--|
D|-4---4--4---4---4--4--4--4----2----4h-6------------------|
A|--------------------------------------------------------0|
E|---------------------------------------------------------|

Awesome tab though, 5 *'s

0 reply
GNR87roxs wrote on October 8 2011, 09:28 pm

Hey man thanks for the addition to the tab! Hope you enjoy the tab!

I want to post or [tab]
guest
You may want to rate the tab now too:
select rating
Please do not post tabs as comments. Select "correction" instead!