Oops, an error
Loading. Please wait.

Back From Cali Tab

version 3
version 3

Whole song

Interactive

25,284 views 15 this week
no commentswrite comment
1 2 3 4 5
excellent!
x 9
add to favorites
launch autoscroll
font size
0
reset
how to read this tab
guitar tuner
Tab Pro tools
  • play this tab
  • loop segment
  • change instrument
  • show fretboard
  • metronome
×
Best way to learn
"Back From Cali"
Autoscroll
slow
fast
+/-
esc
set tempo
stop
Contributor
Difficulty
intermediate
Slash
Back From Cali
Full Tab!
Tuning Standard EBGDAE

Intro, Verse w/ a little distortion.
4 Times
e|----------------------------------------------------------------------|
B|---------------3-------------------------------5-\--3--3--------------|
G|-----2h4-------4---4--2--4--2------1-----------4-\--2--2--2-----------|
D|-4---4-4-------4---4--4--4--4------2------4h6--6-\--4--4--------------|
A|-2------------------------------------------------------------0-------|
E|----------------------------------------------------------------------|

e|----------------------------------------------------------------------|
B|---------------3-------------------------------5-\--3--3--------------|
G|-----2h4-------4---4--2--4--2------4-----------4-\--2--2--2-----------|
D|-4---4-4-------4---4--4--4--4------2------4h6--6-\--4--4--------------|
A|-2------------------------------------------------------------0-------|
E|----------------------------------------------------------------------|

Chorus:

e|-----------------------------------------------------------------------|
B|---------------------------------------------------------3-------------|
G|---4---4----4----0----4----4----4----4-------------------2-2-2--0------|
D|---4---4----4----0----4----4----4----4----2---2----------0-2-2--0------|
A|---2---0----2----0----2----0----2----0----2---2------------0-0--0------|
E|------------------------------------------0---0----2h-4----------------|

Bridge:

e|--------------------------------------------------------|
B|-3--3--3-3---2---------------------------------7\-6\-5\-| <-Slide from here
G|-4--4--4-4---3-2--2--x-x-x-4-4-4-4--4-4---4-4--8\-7\-6\-| <-to beginning
D|-------------0-2--2--x-x-x-4-4-4-4--4-4---4-4-----------| x3 
A|---------------0--0--x-x-x-2-2-0h2--0h2---0h2-----------|
E|-3--3--3-3-------------------------------------7\-6\-5\-| <-

e|-----------------------------------------------------------------------|
B|---3--3--3-3---2-------------------------------------------------------|
G|---4--4--4-4---3-2-2-2-2-2--------------2-2--2--x-x-x------------------|
D|---------------0-2-2-2-2-2---4--4--4-4--2-2--2--x-x-x------------------|
A|-----------------0-0-0-0-0---4--4--4-4--0-0--0--x-x-x------------------|
E|---3--3--3-3-----------------2--2--2-2---------------------------------|

Solo:

e|-------------------------------------------------------7\5----------------|
B|----9b-(9)---9b--9b---9b---------9-9-------------------------7--6--5------|
G|----9b-(9)---9b--9b---9b-9----7--9-9---7---7--9--7------------------------|
D|-----------------------------------------9----------9---------------------|
A|--------------------------------------------------------------------------|
E|--------------------------------------------------------------------------|


e|---------------------------10-------12b-12--10----------------------------|
B|----5h7p5--5---3/------12-------12-------------12-10-12/-17b~~~~~---------|
G|--------------------------------------------------------------------------|
D|--------------------------------------------------------------------------|
A|--------------------------------------------------------------------------|
E|--------------------------------------------------------------------------|

e|-------------19--17------17-----------------------------------------------|
B|--------19b----------19-----------17--16b~~~\-----------------------------|
G|-----------------------------18-------------------------------------------|
D|--------------------------------------------------------------------------|
A|--------------------------------------------------------------------------|
E|--------------------------------------------------------------------------|

Outro:
4x
e|--------------------------------------------------------------------------|
B|--------------------------------------------------------------------------|
G|--4--4--4--4--4--4-----4-4---4-4------------------------------------------|
D|--4--4--4--4--4--4-----4-4---4-4------------------------------------------|
A|--2--2--0--2--0--2-----0-2---0-2------------------------------------------|
E|--------------------------------------------------------------------------|

e|--3--3--3--3--3--3---3-3-3-------------------------------------------|
B|--3--3--3--3--3--3---3-3-3-2-----------------------------------------|
G|---------------------------3-2--2--2--2--2--2---4~~~\0---------------|
D|---------------------------0-2--2--2--2--2--2---4~~~\0---------------|
A|--x--x--x--x--x--x---x-x-x---0--0--0--0--0--0---2~~~\0---------------|
E|--3--3--3--3--3--3---3-3-3-------------------------------------------|
comments
print report bad tab
I want to post or [tab]
guest
You may want to rate the tab now too:
select rating
Please do not post tabs as comments. Select "correction" instead!