Oops, an error
Loading. Please wait.

Bad Rain Tab

version 2
version 2

Whole song

12,550 views 57 this week
no commentswrite comment
1 2 3 4 5
x 7
add to favorites
launch autoscroll
font size
0
reset
how to read this tab
guitar tuner
Autoscroll
slow
fast
+/-
esc
set tempo
stop
Help us to improve Ultimate-Guitar.com Take our survey!
×
Author
Difficulty
Tuning
intermediate
C# G# C# F# A# D#
Slash & the Conspirators - Bad Rain
From "Apocalyptic Love"
Tuning: Drop-D, lowered 1 fret
tabbed by jjhand

I took some of the tab by Gu1tar K1d and fixed it up with a couple parts 
that were missing (thanks Gu1tar K1d !!). 

I liked the cool riffs by Slash and the rhythm/lead guitar parts weaving 
together the main riffs. Please rate or comment.


Intro Bar:

eb|----------|
Bb|----------|
Gb|----------|
db|----------|
Ab|-0-2-3-2--|
Db|-0-2-3-2--|
    PM*****



Verse:         mute all but 3rd fret chord

eb|-----------------|---------------------|
Bb|-----------------|---------------------|
Gb|-----------------|---------------------|
db|-----------------|---------------------|
Ab|-0-----7---------|-8------3------------| x3
Db|-0-----7----10-9-|-8------3----0-2-3-2-|
               

eb|-----------------|-----------------|
Bb|-----------------|-----------------|
Gb|-----------------|-----------------|
db|-----------------|-----------------|
Ab|-0-----7---------|-8------3<-------| vol swell
Db|-0-----7----10-9-|-8------3<-------|


eb|-----------------|---------------------|
Bb|-----------------|---------------------|
Gb|-----------------|---------------------|
db|-----------------|---------------------|
Ab|-0-----7---------|-8------3------------| x3
Db|-0-----7----10-9-|-8------3----0-2-3-2-|


eb|-----------------|-----------------|
Bb|-----------------|-----------------|
Gb|-----------------|-----------------|
db|-----------------|--------10-------|
Ab|-0-----7---------|-8------10-------|
Db|-0-----7----10-9-|-8------10-------|




PreChorus:

eb|-----------------|--------------------|
Bb|-----------------|--------------------|
Gb|-----------------|--------------------|
db|-----------------|--------------------|
Ab|-7-7-7-7-7-7-7-7-|-7-7-7-7-7-10-10-10-|
Db|-7-7-7-7-7-7-7-7-|-7-7-7-7-7-10-10-10-|
    PM*************




Chorus:

    Rhythm (Myles)
eb|-----------------------|------------------------|
Bb|----------3------------|------------------------|
Gb|----------2------------|------------------------|
db|----------0------------|------------------------|
Ab|-0--------0--------5-7-|-8--------3-------------| x3
Db|-0--------0--------5-7-|-8--------3-----0-2-3-2-|
  |
  | Lead (Slash)
eb|-----------------------|------------------------|
Bb|-----------------------|------------------------|
Gb|-----------------------|------0-----------------|
db|-----3-------3-----x---|-3----------------------|
Ab|-0-3---3h5-----3h5-x-0-|-1--------3-------------| x3
Db|-0---------------------|----------3-----0-2-3-2-|


Lead
eb|-----------------------|------------------------|
Bb|-----------------------|------------------------|
Gb|-----------------------|------------------------|
db|-----------------------|----------10------------|
Ab|-0--------0--------5-7-|-8--------10------------|
Db|-0--------0--------5-7-|-8--------10----0-2-3-2-|
  |
  | Lead
eb|-----------------------|------------------------|
Bb|-----------------------|------------------------|
Gb|-----------------------|------0---5-------------|
db|-----3-------3-----x---|-3--------5-------------|
Ab|-0-3---3h5-----3h5-x-0-|-1--------3-------------|
Db|-0---------------------|----------------0-2-3-2-|





Verse 2 - Same as Verse 1, except where noted below:

(1:10) 
eb|-----------10-------|---------------------|
Bb|-----------10-------|---------------------|
Gb|--------------------|---------------------|
db|--------------------|---------------------|
Ab|-0-----7------------|-8------3------------| x3
Db|-0-----7-------10-9-|-8------3----0-2-3-2-|

    
(1:18) Rhythm:
eb|-----------------|------------------------|
Bb|-----------------|------------------------|
Gb|-----------------|------------------------|
db|-----------------|------------------------|
Ab|-0-----7------10-|-10-9--9--8--8--6--6--7-|
Db|-0-----7------10-|-10-9--9--8--8--6--6--7-|
  |
  |    Lead
eb|-----------------|------------------------|
Bb|-----------------|------------------------|
Gb|---------------5-|-5--4--4--3--3--1--1--2-|
db|-----------------|------------------------|
Ab|-0-----7---------|------------------------|
Db|-0-----7---------|------------------------|



(1:23) Verse 2 continues, mutes throughout

     Rhythm
eb|------------------------------|-----------------------|
Bb|------------------------------|-----------------------|
Gb|------------------------------|-----------------------|
db|---0-0-0-0---0-0-0-0-0-0-10-9-|-8-0-0-0-0-------------|
Ab|------------------------------|-----------8---5-7-8-7-| x3
Db|------------------------------|-----------------------|
  |  Lead 
eb|------------------------------|-----------------------|
Bb|------------------------------|-----------------------|
Gb|------------------------------|-----------------------|
db|------------------------------|-----------------------|
Ab|-0---------7------------------|-8---------3-----------| x3
Db|-0-0-0-0-0-7-0-0-0-0-0-0-10-9-|-8-0-0-0-0-3---0-2-3-2-|


last 2 bars, guitars end on 10th Fret chord (B)

Rhythm
-----------------------|
-----------------------|
-----------------------|
-----------10----------|
-8---------10----------|
-8-0-0-0-0-10----------|

Play Chorus Again





Pre-Solo:

    Rhythm (with alternating mutes/accents)
eb|-----------------|-----------------|-----------------|---------------|
Bb|-----------------|-----------------|-----------------|---------------|
Gb|-----------------|-----------------|-----------------|---------------|
db|-3-3-3-3-3-3-3-3-|-3-3-3-3-3-3-3-3-|-7-7-7-7-7-7-7-7-|-7-7-7-7-7-5-7-|
Ab|-3-3-3-3-3-3-3-3-|-3-3-3-3-3-3-3-3-|-7-7-7-7-7-7-7-7-|-7-7-7-7-7-5-7-|
Db|-3-3-3-3-3-3-3-3-|-3-3-3-3-3-3-3-3-|-7-7-7-7-7-7-7-7-|-7-7-7-7-7-5-7-|
  |                                                                  
  | Lead, with Wah
eb|-----------------|-----------------|-----------------|---------------|
Bb|-----------------|-----------------|-----------------|---------------|
Gb|-10~-------------|-10-----10s12-10-|-9---------------|---------------|
db|-----------------|-----------------|-----------------|---------------|
Ab|-8~--------------|-8-------8s10--8-|-7---------------|-12~---12-10-12|
Db|-----------------|-----------------|----10--7~-------|---------------|



    Rhythm - note repeated chord
eb|-----------------|-----------------------|--------------|----------------------|
Bb|-----------------|-----------------------|--------------|----------------------|
Gb|-----------------|-----------------------|--------------|----------------------|
db|-8---8-8-8-8-8-8-|-----------------------|-10-----------|-10-10-10-10-10-7-7-7-|
Ab|-8---8-8-8-8-8-8-|-10--10-10-10-10-10-10-|-10-(play 8x)-|-10-10-10-10-10-7-7-7-|
Db|-8---8-8-8-8-8-8-|-9---9--9--9--9--9--9--|-10-----------|-10-10-10-10-10-7-7-7-|
  |
  |  Lead
eb|-----------------|-----------------------|--------------|----------------------|
Bb|-----------------|-----------------------|--------------|----------------------|
Gb|-----7-7-7-7-7-7-|------7--7--7--7--7--7-|-17-----------|-17~~~--------14-14-14|
db|-----------------|-----------------------|----(play 8x)-|----------------------|
Ab|-13\-5-5-5-5-5-5/|-14\--5--5--5--5--5--5-|-15-----------|-15~~~--------12-12-12|
Db|-----------------|-----------------------|--------------|----------------------|







Solo:
eb|----------------------|---------------|---------------------------|----------------------|
Bb|-13~~~-11-10-11-10b11~|r10~~~~~-------|-10~-----------------------|----------------------|
Gb|----------------------|------------10-|-----12p10-12-12~~--9-10-9-|-9b10r~~~--------14---|
db|----------------------|----------12---|---------------------------|---------10-10\----15-|
Ab|----------------------|---------------|---------------------------|----------------------|
Db|----------------------|---------------|---------------------------|----------------------|

eb|----------------------------|-------------------------20-----20----20-|
Bb|-15~-----18~----20b22r20p18-|-20b22r20p18----18h20b22----20-----18----|
Gb|-----14------19-------------|-------------19--------------------------|
db|----------------------------|-----------------------------------------|
Ab|----------------------------|-----------------------------------------|
Db|----------------------------|-----------------------------------------|


eb|---------------------------------------------|--------------------------|
Bb|-17-17h18p17---------------------------------|--------------------------|
Gb|------------19-17----------------------------|--------------------------|
db|-----------------19-18-17\15-17p15--17-15h17-|-17b19________r--15-------|
Ab|----------------------------------17---------|-------------------17\----|
Db|---------------------------------------------|--------------------------|




Clean Guitar with Bass (Final Verse)

eb|-6---5--------|--------5-----|-6---5--------|
Bb|-6---6--------|-----6--------|-6---6--------|
Gb|-7---5--------|--------------|-7---5--------|
db|--------------|--------------|--------------|
Ab|--------------|--------------|--------------|
Db|--------------|--------------|--------------|




Play Chorus Again 1x




Ending - Palm mute * notes

    Rhythm
eb|-------------------------------|----------------------------|
Bb|-------------------------------|----------------------------|
Gb|-------------------------------|----------------------------|
db|-----*---*-------*---*---*---*-|-----*---*----------*-*-*-*-|
Ab|-0---0---0---7---0---0---0---0-|-8---0---0---3~-----0-2-3-2-| play 3x
Db|-0---0---0---7---0---0---0---0-|-8---0---0---3~-----0-2-3-2-|
  |
  | Lead - wah in treble position
eb|-------------------------------|----------------------------|
Bb|-------------------------------|----------------------------|
Gb|-------------------------------|----------------------------|
db|-0---0-3p0---7---0h3p0-7--10-9-|-8---0-3p0-0-6~--7--0-2-3-2-|
Ab|-------------------------------|----------------------------| play 3x
Db|-------------------------------|----------------------------|



eb|-------------------------------|---------------------------|-----------|
Bb|-------------------------------|---------------------------|-----------|
Gb|-------------------------------|---------------------------|-----------|
db|-----*---*-------*---*---*---*-|-----*---*---------*-*-*-*-|-----------|
Ab|-0---0---0---7---0---0---0---0-|-8---0---0--10~----0-2-3-2-|-0---------|
Db|-0---0---0---7---0---0---0---0-|-8---0---0--10~----0-2-3-2-|-0---------|
  |  Lead
eb|-------------------------------|---------------------------|-----------|
Bb|-------------------------------|---------------------------|-----------|
Gb|-------------------------------|---------------------------|-----------|
db|-0---0-3p0---7---0h3p0-7--10-9-|-8---0-3p0-0-5~~~----------|-----------|
Ab|-------------------------------|-------------------0-2-3-2-|-0---------|
Db|-------------------------------|-------------------0-2-3-2-|-0---------|



KEY
************************************

| /   slide up
| \   slide down
| h   hammer-on
| p   pull-off
| ~   vibrato
| +   harmonic
| x   Mute note
| b   Bend
| r   Bend release
| __  hold note       ( 9___ )
Suggest correction
comments
print report bad tab
guest
You may want to rate the tab now too:
select rating
Wanna post a correction for this tab? Suggest correction