Oops, an error
Loading. Please wait.

Beautiful Dangerous Bass Tab

version 1
version 1

Whole song

Interactive

5,272 views 18 this week
2 commentsread comments
1 2 3 4 5
worth learning
x 5
add to favorites
launch autoscroll
font size
0
reset
guitar tuner
Tab Pro tools
  • play this tab
  • loop segment
  • change instrument
  • show fretboard
  • metronome
×
Best way to learn
"Beautiful Dangerous"
Autoscroll
slow
fast
+/-
esc
set tempo
stop
Contributor
Difficulty
intermediate
-----------------------------------------------------------------------------
			     BEAUTIFUL DANGEROUS - Slash
-----------------------------------------------------------------------------

Tabbed By : TrojanWarhorse
e-mail: trojanstone@hotmail.com

Tuning:Standard



|--------------------------------|	|------------------------------|
|--------------------------------|	|------------------------------|
|--------------------------------|	|--------------------------0-2-| x2
|2-------2-------2-------2-------|	|2---2---2---2---2---2---2-----|

|------------------------------------------------------------|
|------------------------------------------------------------|
|--------------------------------------------------------0-2-| X2
|0-2-----2-------0-2-----2-------0-2-----2-------0-2---------|

VERSE
|--------------------------------------------------------|	/---------|
|--------------------------------------------------------|	/---------|
|----------------------------------------------------2-0-|	/-----3---|
|0-2-----2-------0-2-----2-------0-2-----2---0-2---------|	/-------3-|

CHORUS
|--------------------------------|     |------------------------------|	
|--------------------------------|     |------------------------------|
|5-------0-------------------3---|X2   |5---------------2-------------|
|----------------0---3---0-----3-|     |--------5---------------------|


|------------------------------------------------------------|	 /----------|
|------------------------------------------------------------|	 /----------|
|--------------------------------------------------------0-2-|X2 /----------|
|0-2-----2-------0-2-----2-------0-2-----2-------0-2---------|	 /--0-2-----|

|------------------------------------------------------------|   /---------|
|------------------------------------------------------------|   /---------|
|--------------------------------------------------------2-0-|   /-----3---|
|0-2-----2-------0-2-----2-------0-2-----2-------0-2---------|   /-------3-|



|--------------------------------|	|------------------------------|
|--------------------------------|	|------------------------------|
|5-------0-------------------3---|X2	|5---------------2-------------|
|----------------0---3---0-----3-|	|--------5---------------------|

Lead
|------------------------------------------------------------|    /---------|
|------------------------------------------------------------|    /---------|
|--------------------------------------------------------0-2-| X2 /-----3---|
|0-2-----2-------0-2-----2-------0-2---------2---0-2---------|    /-------3-|


|--------------------------------|   |--------------------------------|	
|--------------------------------|   |--------------------------------|	
|5-------0-------------------3---|X2 |5----5-7-0------------------3---| X2
|----------------0---3---0-----3-|   |----------------0---3---0-----3-|
 
|---------------------------------|  |--------------------------------|	
|------7--------------------------|  |--------------------------------|	
|5---/7-7---------------------3---|  |5----5-7--------------------3---| 
|--------5--------0---3---0-----3-|  |---------5------0---3---0-----3-|	fade
comments
print report bad tab
2 comments total.
0 reply
ClosedRoad wrote on September 19 2010, 06:14 am

try tabbing it in drop-d
just listen to the chorus.
and play:

G ----------------------------|
D ----------------------------|
A ----0---------------3-------|
D 0-------2----5----2-----5---|

+1 reply
TrojanWarhorse wrote on September 30 2010, 02:18 am

Sure, that works, considering they're the exact same notes.

I want to post or [tab]
guest
You may want to rate the tab now too:
select rating
Please do not post tabs as comments. Select "correction" instead!