Oops, an error
Loading. Please wait.

Beautiful Dangerous Bass Tab

version 2
version 2

Whole song

Interactive

1,027 views 1 this week
no commentswrite comment
1 2 3 4 5
please rate
add to favorites
launch autoscroll
font size
0
reset
guitar tuner
Tab Pro tools
  • play this tab
  • loop segment
  • change instrument
  • show fretboard
  • metronome
×
Best way to learn
"Beautiful Dangerous"
Autoscroll
slow
fast
+/-
esc
set tempo
stop
Contributor
Tuning
D A D G B E
G|-----------------------------------------------------------------|
D|---------5---------------5---------------5-----------------------|
A|-----------------------------------------------------------------|
D|-4---------------4---------------4---------------4-------r-------|
   1 + 2 + 3 + 4 + 1 + 2 + 3 + 4 + 1 + 2 + 3 + 4 + 1 + 2 + 3 + 4 +

G|-------------------------------------------------------------------|
D|o-----------------------------------------------------------------o|
A|o---------------------------------------------------------0-0-22--o|
D|--4-------4-------4-------4-------4-------4-------4----------------|
    1 + 2 + 3 + 4 + 1 + 2 + 3 + 4 + 1 + 2 + 3 + 4 + 1 + 2 + 3 + 4 +

0:28
G|-------------------------------------------------------------------|
D|o-----------------------------------------------------------------o|
A|o---------------------------------------------------------0-0-22--o|
D|--2-4-----4-------2-4-----4-4-----2-4-----4-------2-4--------------|
    1 + 2 + 3 + 4 + 1 + 2 + 3 + 4 + 1 + 2 + 3 + 4 + 1 + 2 + 3 + 4 +

0:47
G|-----------------------------------------------------------------|
D|-----------------------------------------------------------------|
A|---------------------------------------------------------2-2-00--|
D|-2-4-----4-4-----2-4-----4-4-----2-4-----4-4-----2-4-------------|
   1 + 2 + 3 + 4 + 1 + 2 + 3 + 4 + 1 + 2 + 3 + 4 + 1 + 2 + 3 + 4 +

G|-----------------------------------------------------------------|
D|-----------------------------------------------------------------|
A|---------------------------------------------------------3-------|
D|-2-4-----4-4-----2-4-----4-4-----2-4-----4-4-----2-4---------5---|
   1 + 2 + 3 + 4 + 1 + 2 + 3 + 4 + 1 + 2 + 3 + 4 + 1 + 2 + 3 + 4 +

1:06
G|-------------------------------------------------------------------|
D|o-----------------------------------------------------------------o|
A|o-----------------0-------0-0-0-0-------------------------3-------o|
D|--0---0---0-0-0-0-----------------2-------5-------2-----------5----|
    1 + 2 + 3 + 4 + 1 + 2 + 3 + 4 + 1 + 2 + 3 + 4 + 1 + 2 + 3 + 4 +

G|-----------------------------------------------------------------|
D|-----------------------------------------------------------------|
A|-5-------5-5---7-0-------0-0---0-2-------2-2-----2-------2---2-0-|
D|-----------------------------------------------------------------|
   1 + 2 + 3 + 4 + 1 + 2 + 3 + 4 + 1 + 2 + 3 + 4 + 1 + 2 + 3 + 4 +

1:36
G|-------------------------------------------------------------------|
D|o-----------------------------------------------------------------o|
A|o---------------------------------------------------------0-0-22--o|
D|--2-4-----4-------2-4-----4-4-----2-4-----4-------2-4--------------|
    1 + 2 + 3 + 4 + 1 + 2 + 3 + 4 + 1 + 2 + 3 + 4 + 1 + 2 + 3 + 4 +

G|-----------------------------------------------------------------|
D|-----------------------------------------------------------------|
A|-----------------------------------------------------------------|
D|-2-4-----4-------2-4-----4-4-----2-4-----4-------2-4-------------|
   1 + 2 + 3 + 4 + 1 + 2 + 3 + 4 + 1 + 2 + 3 + 4 + 1 + 2 + 3 + 4 +

2:06
G|-----------------------------------------------------------------|
D|-----------------------------------------------------------------|
A|---------------------------------------------------------0-0-22--|
D|-2-4-----4-4-----2-4-----4-4-----2-4-----4-4-----2-4-------------|
   1 + 2 + 3 + 4 + 1 + 2 + 3 + 4 + 1 + 2 + 3 + 4 + 1 + 2 + 3 + 4 +

G|-----------------------------------------------------------------|
D|-----------------------------------------------------------------|
A|---------------------------------------------------------3-------|
D|-2-4-----4-4-----2-4-----4-4-----2-4-----4-4-----2-4---------5---|
   1 + 2 + 3 + 4 + 1 + 2 + 3 + 4 + 1 + 2 + 3 + 4 + 1 + 2 + 3 + 4 +

2:24
G|-------------------------------------------------------------------|
D|o-----------------------------------------------------------------o|
A|o-----------------0-------0-0-0-0-------------------------3-------o|
D|--0---0---0-0-0-0-----------------2-------5-------2-----------5----|
    1 + 2 + 3 + 4 + 1 + 2 + 3 + 4 + 1 + 2 + 3 + 4 + 1 + 2 + 3 + 4 +

G|-----------------------------------------------------------------|
D|-----------------------------------------------------------------|
A|-5-------5-5---7-0-------0-0---0-2-2-----2-2-----2---2---2---2-0-|
D|-----------------------------------------------------------------|
   1 + 2 + 3 + 4 + 1 + 2 + 3 + 4 + 1 + 2 + 3 + 4 + 1 + 2 + 3 + 4 +

2:53
G|-------------------------------------------------------------------|
D|o-----------------------------------------------------------------o|
A|o---------------------------------------------------------0-0-22--o|
D|--2-4-----4-4-----2-4-----4-4-----2-4-----4-4-----2-4--------------|
    1 + 2 + 3 + 4 + 1 + 2 + 3 + 4 + 1 + 2 + 3 + 4 + 1 + 2 + 3 + 4 +

G|-----------------------------------------------------------------|
D|-----------------------------------------------------------------|
A|---------------------------------------------------------3-------|
D|-2-4-----4-4-----2-4-----4-4-----2-4-----4-4-----2-4---------5---|
   1 + 2 + 3 + 4 + 1 + 2 + 3 + 4 + 1 + 2 + 3 + 4 + 1 + 2 + 3 + 4 +

3:24
G|-------------------------------------------------------------------|
D|o-----------------------------------------------------------------o|
A|o-----------------0-------0-0-0-0-------------------------3-------o|
D|--0---0---0-0-0-0-----------------2-------5-------2-----------5----|
    1 + 2 + 3 + 4 + 1 + 2 + 3 + 4 + 1 + 2 + 3 + 4 + 1 + 2 + 3 + 4 +

3:44
G|-----------------------------------------------------------------|
D|-----------------------------------------------------------------|
A|-------------5-7-0-------0-0-0-0-------------------------3-------|
D|-0---0---0-0---------------------2-------5-------2-----------5---|
   1 + 2 + 3 + 4 + 1 + 2 + 3 + 4 + 1 + 2 + 3 + 4 + 1 + 2 + 3 + 4 +

G|-----------------------------------------------------------------|
D|-----------------------------------------------------------------|
A|-5---5---5-5-5-7-0-------0-0-0-0-------------------------3-------|
D|---------------------------------2---2---5-5-5---2-2-2-------5---|
   1 + 2 + 3 + 4 + 1 + 2 + 3 + 4 + 1 + 2 + 3 + 4 + 1 + 2 + 3 + 4 +

4:04
G|-----------------------------------------------------------------|
D|-------------------------7---------------------------------------|
A|-5---------------5---5h7-----7---0-------0-------0---0---0---0---|
D|-----------------------------------------------------------------|
   1 e + a 2 e + a 3 e + a 4 e + a 1 e + a 2 e + a 3 e + a 4 e + a 

G|-----------------------------------------------------------------|
D|-----------------------------------------------------------------|
A|-------------------------------------------------3---------------|
D|-2-------2-------5-------5-------2---2---2---------------5-------|
   1 e + a 2 e + a 3 e + a 4 e + a 1 e + a 2 e + a 3 e + a 4 e + a 

4:15
G|-----------------------------------------------------------------|
D|-----------------------------------------------------------------|
A|-5---5---5-5-5-5-0-------0-0-0-2-------------------------3-3-----|
D|---------------------------------2---2---5-5-5---2-2-2-2-----5-5-|
   1 + 2 + 3 + 4 + 1 + 2 + 3 + 4 + 1 + 2 + 3 + 4 + 1 + 2 + 3 + 4 +

G|-----------------------------------------------------------------|
D|------------------------------------------------------------/5---|
A|-5---5---5-5-5-7-0-------0-0-0-2-------------------------3-------|
D|---------------------------------2-------5-------2-------------5-|
   1 + 2 + 3 + 4 + 1 + 2 + 3 + 4 + 1 + 2 + 3 + 4 + 1 + 2 + 3 + 4 +
comments
We did not receive enough feedback on this tab! Please rate:
print report bad tab
1 2 3 4 5
I want to post or [tab]
guest
You may want to rate the tab now too:
select rating
Please do not post tabs as comments. Select "correction" instead!