Oops, an error
Loading. Please wait.

Beautiful Dangerous Tab

version 2
version 2

Whole song

Interactive

19,600 views 3 this week
1 commentread comment
1 2 3 4 5
accurate
x 4
add to favorites
launch autoscroll
font size
0
reset
how to read this tab
guitar tuner
Autoscroll
slow
fast
+/-
esc
set tempo
stop
Help us to improve Ultimate-Guitar.com Take our survey!
×
Author
Difficulty
Tuning
intermediate
D A D G B E
----------------------------------------------------------------------------
Beautiful Dangerous – Slash Feat. Fergie
----------------------------------------------------------------------------
Tabbed by: Ironmaiden_98
Email: emoguy88@gmail.com
This is my first tab, and I think it's about right
Listen to the song for timing
Tuning: EBGDAD (Drop D)
Intro (all bass, but here’s the chords)
e|-------------------------------------------------------------------------|
B|-------------------------------------------------------------------------|
G|-------------------------------------------------------------------------|
D|--4--5-------------------------------------------------------------------|
A|--4--5-------------------------------------------------------------------|
D|--4--5-------------------------------------------------------------------|
(With tremolo)
e|-------------------------------------------------------------------------|
B|-------------------------------------------------------------------------|
G|-------------------------------------------------------------------------|
D|--4--7--4----------------------------------------------------------------|
A|--4--7--4----------------------------------------------------------------|
D|--4--7--4----------------------------------------------------------------|
Verse 
    Pm--        pm-----------------    pm-----------------------
e|-------------------------------------------------------------------------|
B|-------------------------------------------------------------------------|
G|-------------------------------------------------------------------------|
D|--2--4--4~-----2--4---------2--4--4~----2--4----7--9---------------------|
A|--2--4---------2--4---------2--4--------2--4----7--9---------------------|
D|--2--4---------2--4---------2--4--------2--4----7--9--------------| Repeat
   | Repeat 3 times         |                          
e|-------------------------------------------------------------------------|
B|-------------------------------------------------------------------------|
G|----------------------------------------5~--4--2-------------------------|
D|--2--4----------------4~----------4-----4~--4--2-------------------------|
A|--2--4----------0--------------4-----------------------------------------|
D|--2--4--2--4------4------------------------------------------------------|

   Lead Guitar Repeats Previous Section, Rhythm Guitar Plays:
e|-------------------------------------------------------------------------|
B|-------------------------------------------------------------------------|
G|--------2-----4-----5----------------------------------------------------|
D|--4-----2-----4-----4----------------------------------------------------|
A|--4-----0-----2-----3----------------------------------------------------|
D|--4----------------------------------------------------------------------|
   Chorus (Chords)
e|-------------------------------------------------------------------------|
B|--3-----2----------------------------------------------------------------|
G|--2-----2--------------5-------------------------------------------------|
D|--0-----2-----2--5--2--5--5----------------------------------------------|
A|--0-----0-----2--5--2--3--5----------------------------------------------|
D|--0-----------2--5--2-----5---------------------------------------| Repeat
   Chorus (Lead)
e|-------------------------------------------------------------------------|
B|-------------------------------------------------------------------------|
G|--11~--12p11-----14~--12--12p11------------------------------------------|
D|-------------12-----------------12---------------------------------------|
A|-------------------------------------------------------------------------|
D|-------------------------------------------------------------------------|

e|-------------------------------------------------------------------------|
B|-------------------------------------------------------------------------|
G|-------------------------------------------------------------------------|
D|--11~--12p11-------14~--12--12p11----------------------------------------|
A|--------------12-------------------12------------------------------------|
D|-----------------------------------------On third repeat, go to Chorus End

e|-------------------------------------------------------------------------|
B|-------------------------------------------------------------------------|
G|-------------------------12--14br--13~--13h14p13--12---------------------|
D|----------------------12-------------------------------------------------|
A|--11~--11h12p11--10------------------------------------------------------|
D|----------------------------------------------------------| Repeat 3 Times

   Chorus (End) Lead & Rhythm
e|-------------------------------------------------------------------------|
B|-------------------------------------------------------------------------|
G|--4----------------------------------------------------------------------|
D|--4----------------------------------------------------------------------|
A|--2----------------------------------------------------------------------|
D|-------------------------------------------------------------------------|
   Break (Rhythm plays Verse under this)
e|-------------------------------------------------------------------------|
B|-------------------------------------------------------------------------|
G|--11-11--x--x--11--11-x--x-11s-------------------------------------------|
D|--x--x---x--x--x---x--x--x--xs-------------------------------------------|
A|--9--9---x--x--9---9--x--x--9s-------------------------------------------|
D|----------------------------------------------------------| Repeat 3 Times

e|-------------------------------------------------------------------------|
B|-------------------------------------------------------------------------|
G|--11--11----------11--11--------11--11------11--11-----------------------|
D|----------11--11---------10--10--------9--9--------9~--------------------|
A|-------------------------------------------------------------------------|
D|--------------------------------------------------------| Go Back to Verse
  Solo
e|-------------------------------------------------------------------------|
B|--12b14~--12brp10--12brp10--12b13~--12brp10--12--------------------------|
G|-------------------------------------------------------------------------|
D|-------------------------------------------------------------------------|
A|-------------------------------------------------------------------------|
D|-------------------------------------------------------------------------|

e|----------------------------------------------------------------12b14----|
B|--10h12p10s9--10--9h10p9------9------------------------------------------|
G|-------------------------------------11----11h13p11--9-------------------|
D|-------------------------------------------------------------------------|
A|-------------------------------------------------------------------------|
D|-------------------------------------------------------------------------|


e|--12b14--12--9--12--9h12p9------9----------------------------------------|
B|----------------------------12-----12--10h12p10-----10-------------------|
G|-------------------------------------------------11----------------------|
D|-------------------------------------------------------------------------|
A|-------------------------------------------------------------------------|
D|-------------------------------------------------------------------------|

e|--12-------12------------------9b12~p7-----------------------------------|
B|--12b14------12br-10-------------------10~-------------------------------|
G|----------------------------11--------------------11--9------------------|
D|-------------------------------------------------------------------------|
A|-------------------------------------------------------------------------|
D|-------------------------------------------------------------------------|

e|--9brbr--7h9p7-----------------------------------9-----11--9-------------|
B|---------------------9b10-9~------10--9--12--10----12--------------------|
G|------------------------------11-----------------------------------------|
D|-------------------------------------------------------------------------|
A|-------------------------------------------------------------------------|
D|-------------------------------------------------------------------------|

e|--12--11--14--12--16--12--14--16--17--16p14p12--16p14p12-----------------|
B|-------------------------------------------------------------------------|
G|-------------------------------------------------------------------------|
D|-------------------------------------------------------------------------|
A|-------------------------------------------------------------------------|
D|-------------------------------------------------------------------------|

e|--14p12------------------14----------------------------------------------|
B|-----------14----------14-----17p14--------------------------------------|
G|---------------16b18------------------16--17p16p14-----------------------|
D|--------------------------------------------------------------16---------|
A|-------------------------------------------------------------------------|
D|-------------------------------------------------------------------------|

e|------------------------------------------------------------14-----------|
B|-----------------------------------------------------17b19------14-------|
G|--16-----14b----------------------------14-------------------------------|
D|------16-------16p14--16~--14h16-----14----------------------------------|
A|-------------------------------------------------------------------------|
D|-------------------------------------------------------------------------|

e|---------14------------16pb17--16--14--16-14h16p14-----------------------|
B|--17b19------17--14------------------------------------------------------|
G|-------------------------------------------------------------------------|
D|-------------------------------------------------------------------------|
A|-------------------------------------------------------------------------|
D|-------------------------------------------------------------------------|

e|-------14--------14------------16--14h16p14------------------------------|
B|--17------17b------17--14-----------------------17-----------------------|
G|-------------------------------------------------------------------------|
D|-------------------------------------------------------------------------|
A|-------------------------------------------------------------------------|
D|-------------------------------------------------------------------------|

e|--14--16--17--14--16--14------14-----------------------------------------|
B|--------------------------17------17b19--17--14--------------------------|
G|-------------------------------------------------16----------------------|
D|-------------------------------------------------------------------------|
A|-------------------------------------------------------------------------|
D|-------------------------------------------------------------------------|

e|--14----------------------------------19b21r-17-14-17-14----14-----------|
B|------17-14-----------------------------------------------------17b------|
G|---------------16br-14-----16-14-----------------------------------------|
D|------------------------16-----------------------------------------------|
A|-------------------------------------------------------------------------|
D|-------------------------------------------------------------------------|



e|-------------------------------------------------------------------------|
B|--17--14-----------------------------------------------------------------|
G|-----------16brbr--14~---------------------------------------------------|
D|-------------------------------------------------------------------------|
A|-------------------------------------------------------------------------|
D|--------------------------------------------| Repeat Chorus Until Fade Out


************************************

| /   slide up
| \   slide down
| h   hammer-on
| p   pull-off
| ~   vibrato
| +   harmonic
| x   Mute note
| b   Bend
| pb  Pre-bend
| br  Bend release
| pbr Pre-bend release
| brb Bend release bend

************************************

Suggest correction
What's this?
You can suggest a correction to this tab. Community and Mods will review your correction and vote to approve or reject it.
comments
print report bad tab
1 comment total.
-1 reply
fenice92 48 wrote on May 14 2010, 03:40 am

the lead guitar on chorus is wrong

guest
You may want to rate the tab now too:
select rating
Please do not post tabs as comments. Select "correction" instead!