Oops, an error
Loading. Please wait.

Bent To Fly guitar pro

version 2
version 2

Whole song

Interactive

by Slash
1,771 views 15 this week
9 commentsread comments
1 2 3 4 5
x 10
add to favorites
guitar tuner
Autoscroll
slow
fast
+/-
esc
set tempo
stop
"Bent To Fly"
demo version
Play now

or get full version for Free

×
Get full version now!
Learn and play this song
in Tab Pro
Try for free

or get $10 off Welcome Bonus

Get welcome bonus
Get access to Tab Pro version of “Bent To Fly”!
Tab Pro is a premium guitar tab service, available on PC, Mac, iOS and Android
TRY FOR FREE
Your download will start in 7 seconds
×
Like this song? We have more! Follow us on Facebook for daily tips, lessons and other guitar-related content.
To download “Bent To Fly” Guitar Pro tab click button below
Please note that you must have Guitar Pro software installed on your
computer in order to view this file.
Suggest correction
comments
report bad tab
9 comments total. Showing first comments.
0 reply
AliensPredator 576 Feb 06, 2016 10:58 PM

Perfect ! :)

-1 reply
komfy.kulakaw 92 Feb 09, 2016 03:21 PM

That Chorus is off.
It should be more like this:

|--------------------------|--------------------------|
|--3-----3-----------------|--3-----------------------|
|--2-----2-----------2-----|--2--------------------0--|
|--0-----0----3b~----0-----|--0-----3b----0--------0--|
|-----3-----------------3--|-----3-----------3--0--2--|
|--------------------------|-----------------------3--|

---------3-----------|--------------------------|
---------3-----------|--------------------------|
---------0-----------|-----------0--------------|
---------0-----------|--------------0--3~-------|
---------------------|--0--1-2-3----------------|
------------------3--|--------------------------|

guest
You may want to rate the tab now too:
select rating