Oops, an error
Loading. Please wait.

By The Sword Tab

version 1
version 1

Intro

Interactive

31,915 views 3 this week
2 commentsread comments
1 2 3 4 5
worth learning
x 5
add to favorites
launch autoscroll
font size
0
reset
how to read this tab
guitar tuner
Autoscroll
slow
fast
+/-
esc
set tempo
stop
Help us to improve Ultimate-Guitar.com Take our survey!
×
Author
Just thought I would tab the intro that I have right now. Will edit once I have figured 
rest of the song out. Any contribution welcome!
First Riff (and variations)

e|----------------5----------|
B|----------------5----------|
G|------5---------6----------|
D|--5----7-7p5--5-7----------|
A|-7-7--------7---7----------|
E|----------------5----------|

e|----------------2----------|
B|----------------2----------|
G|------7-5-------3----------|
D|--5------7p5--5-4----------|
A|-7-7--------7---4----------|
E|----------------2----------|

e|----------------1----------|
B|----------------1----------|
G|------5-4-2p0-0-2----------|
D|--5----------2--3----------|
A|-7-7------------3----------|
E|----------------1----------|

Second Riff

e|---------------------------|
B|---------------------------|
G|--------------------2------|
D|--------------------2------|
A|--------3-----------0------|
E|-0h3p0----5-5p3p0-3-0------|

e|---------------------------|
B|---------------------------|
G|---------------------------|
D|--------------------4------|
A|--------5-3---------4------|
E|-0h3p0------5p3p0-3-2------|

e|-----------------------------|
B|-----------------------------|
G|-----------------------------|
D|---------------------3-------|
A|--------3-2---------3--------|
E|-0h3p0-------5p3p0-3-1-------|

e|---------------------------|
B|---------------------------|
G|---------------------2-----|
D|---------------------2-----|
A|--------3b-----------0-----|
E|-0h3p0-----5-5p3p0-3-0-----|
Suggest correction
comments
print report bad tab
2 comments total.
+2 reply
interrex 10 wrote on May 8 2010, 06:35 am

no not correct..

0 reply
Joel_B 10 wrote on May 1 2013, 04:51 am

First riff

e|---------------------------|
B|---------------------------|
G|--------------------2------|
D|--------------------2------|
A|--------3-----------0------|
E|-0h3h5----5-5p3p0-3--------|

The Verse is made up of four "riffs". Verse should be:

e|----------------------------|
B|----------------------------|
G|--------5-------------------|
D|----5-7--7-7-5--5-7---------|
A|-5/7----------7---0---------|
E|----------------------------|

e|-----------------------------|
B|--------------------7--------|
G|--------7-5---------7--------|
D|----5-7----7--5--5--7--------|
A|-5/7-----------7-------------|
E|-----------------------------|

e|-----------------------------|
B|--------------------6--------|
G|--------5-4---------5--------|
D|----5-7----7--5--5--3--------|
A|-5/7-----------7-------------|
E|-----------------------------|

e|-----------------------------|
B|-----------------------------|
G|--------7-5------------------|
D|----5-7----7--5--5--7--------|
A|-5/7-----------7----0--------|
E|-----------------------------|

guest
You may want to rate the tab now too:
select rating
Wanna post a correction for this tab? Suggest correction