Oops, an error
Loading. Please wait.

By The Sword Tab

version 1
version 1

Interactive

72,812 views 3 this week
3 commentsread comments
1 2 3 4 5
x 13
add to favorites
launch autoscroll
font size
0
reset
how to read this tab
guitar tuner
Autoscroll
slow
fast
+/-
esc
set tempo
stop
Help us to improve Ultimate-Guitar.com Take our survey!
×
Author
Not sure if its the right key or not, done by ear, it's close enough for me.

Main riff
         1/2
E|--------------------------------|
B|--------------------------------|
G|--------------------------------|
D|-------------------2------------|
A|-------3-----------0------------|
E|-0-3-5---5-5-3-0-3--------------|

         1/2
E|--------------------------------|
B|--------------------------------|
G|--------------------------------|
D|-------------------0------------|
A|-------3-----------0------------|
E|-0-3-5---5-5-3-0-3-2------------|

         1/2
E|--------------------------------|
B|--------------------------------|
G|--------------------------------|
D|-------------------3------------|
A|-------3-2---------3------------|
E|-0-3-5-----5-3-0-2-1------------|

         1/2
E|--------------------------------|
B|--------------------------------|
G|--------------------------------|
D|-------------------2------------|
A|-------3-----------0------------|
E|-0-3-5---5-5-3-0-3--------------|

chorus 

D             Fm
Am            G
D             Fm
Am            G5 A5


this is all i've figured out, hope its good, and if not, hope it gives you a basis
on which to figure it out yourself on.
Thanks.
Suggest correction
comments
print report bad tab
3 comments total.
0 reply
iTim 76 Dec 10, 2009 04:45 AM

Hey nice job, however I think the main riff is a bit off. Check out mine tab of this and tell me what you think, feel free to copy it.
http://www.ultimate-guitar.com/tabs/s/slash/by_the_sword_intro_tab.htm

0 reply
joosy97* 179 Jun 23, 2012 08:47 PM

is this in standard tunining?
btw III];) = awesome

0 reply
oOJonnyLOo 67 Jul 19, 2012 12:41 PM

pretty sure its E standard tuning.. could be flat though slash quite likes to use Eb standard tuning
cheers :)

guest
You may want to rate the tab now too:
select rating
Wanna post a correction for this tab? Suggest correction