Oops, an error
Loading. Please wait.

By The Sword Tab

version 4
version 4

Interactive

16,431 views 36 this week
1 commentread comment
1 2 3 4 5
excellent!
x 11
add to favorites
launch autoscroll
font size
0
reset
how to read this tab
guitar tuner
Autoscroll
slow
fast
+/-
esc
set tempo
stop
Help us to improve Ultimate-Guitar.com Take our survey!
×
Author
Difficulty
intermediate
---------------------------------------------------------------------------------
                             BY THE SWORD - SLASH
---------------------------------------------------------------------------------
Tabbed by: starlight018

100% correct, seen it live loads of times.

Tuning: E Standard


INTRO

e|-----------------------------------|-----------------------------------|
B|-----------------------------------|--------------------------------3--|
G|--------------------------------2--|-----------------------------0--2--|
D|--------------------------------2--|-----------------------------0--0--|
A|--------0---3b--0---0-----------0--|--------0--5--3b---0---------x--0--|
E|--0--3b----------------3--0--3-----|--0--3b----------------3--0--3-----|

e|----------------------------------|-----------------------------------|
B|-----------1---1---------------1--|--------------------------------3--|
G|-----------0---0---------------2--|-----------------------------0--2--|
D|-----------2---0---------------3--|-----------------------------0--0--|
A|--------0--3---2----0----------3--|--------0---5b--3---0--------x--0--|
E|--0--3b--------------3b--0--3b----|--0--3b----------------3--0--3-----|

e|-----|
B|-----|
G|--2--|
D|--2--|
A|--0--|
E|-----|



VERSE

e|-------------------------------------|------------------------------------|
B|-------------------------------------|-----------------------------------3|
G|------------5b-----------------------|------------7b---5b----------------2|
D|------5--7-----7----7-p-5-----5----7-|------5--7-----------7-p-5-----5---4|
A|--/7-----------------------7-------0-|--/7-------------------------7------|
E|-------------------------------------|------------------------------------|
                                                       


e|--------------------------------|-----------------------------------|
B|-----------------------------1--|-----------------------------------|
G|------------5---4--2p0---0---2--|------------5b---------------------|
D|------5--7-------------2-----3--|------5--7-----7----7-p-5-----5----|
A|--/7-------------------------3--|--/7-----------------------7-------|
E|--------------------------------|-----------------------------------|



CHORUS

  D       F       Am      G       D       F       Am

--2--   --1--   --0--   --3--   --2--   --1--   --0--          |--3----(4)--|
--3--   --1--   --1--   --3--   --3--   --1--   --1--          |--3----(4)--|
--2--   --2--   --2--   --0--   --2--   --2--   --2--          |--0----(4)--|
--0--   --3--   --2--   --0--   --0--   --3--   --2--          |--0-----6---|
-(0)-   --3--   --0--   --x--   -(0)-   --3--   --0--          |--x-----6---|
-----   --x--   -----   --3--   -----   --x--   -----          |--3-----4---|



MAIN RIFF

e|-----------------------------------|-----------------------------------|
B|-----------------------------------|--------------------------------3--|
G|--------------------------------2--|-----------------------------0--2--|
D|--------------------------------2--|-----------------------------0--0--|
A|--------0---3b--0---0-----------0--|--------0--5b-3b---0---------x--0--|
E|--0--3b----------------3--0--3-----|--0--3b----------------3--0--3-----|

e|-----------------------------------|--x-3-----x--------------|
B|-----------1---1----------------1--|--x-3-----x--------------|
G|-----------0---0-------------0--2--|--x-0-----x-----------2--|
D|-----------2---0-------------0--3--|--x-0-----x-6---------2--|
A|--------0--3---2----0--------x--3--|--x-x-----x-6---------0--|
E|--0--3b----------------3b-0--3--0--|--x-3-----x-4------------|



+VERSE

HEAVY CHORUS

  D       F       Am      G       D       F       Am

--2--   -----   -----   -----   --2--   -----   -----          |--3---------|
--3--   -----   -----   --3--   --3--   -----   -----          |--3---------|
--2--   -----   -----   --4--   --2--   -----   -----          |------------|
--0--   --3--   --7--   --5--   --0--   --3--   --7--          |--------6---|
-(0)-   --3--   --7--   --5--   -(0)-   --3--   --7--          |--x-----6---|
-----   --1--   --5--   -----   -----   --1--   --5--          |--3-----4---|


BRIDGE

e|------------------------------|------------------------------|
B|--5-5-5-5-x-x-5-5-5-5-x-x-7---|--7-7-7-7-x-x-7-7-7-7---x-6---|
G|--5-5-5-5-x-x-5-5-5-5-x-x-5---|--5-5-5-5-x-x-5-5-5-5---x-5---|
D|--7-7-7-7-x-x-7-7-7-7-x-x-7---|--7-7-7-7-x-x-7-7-7-7---x-7---|
A|------------------------------|------------------------------|
E|------------------------------|------------------------------|

e|------------------------------|-----------------------------|
B|--6-6-6-6-x-x-6-6-6-6-x-x-7---|--7-7-7-7-x-x-1-1-1-1-1-3-3--|
G|--5-5-5-5-x-x-5-5-5-5-x-x-5---|--5-5-5-5-x-x-2-2-2-2-2-4-4--|
D|--7-7-7-7-x-x-7-7-7-7-x-x-7---|--7-7-7-7-x-x-3-3-3-3-3-5-5--|
A|------------------------------|-----------------------------|
E|------------------------------|-----------------------------|

e|------------------------------|------------------------------|
B|--5-5-5-5-x-x-5-5-5-5-x-x-7---|--7-7-7-7-x-x-7-7-7-7---x-6---|
G|--5-5-5-5-x-x-5-5-5-5-x-x-5---|--5-5-5-5-x-x-5-5-5-5---x-5---|
D|--7-7-7-7-x-x-7-7-7-7-x-x-7---|--7-7-7-7-x-x-7-7-7-7---x-7---|
A|------------------------------|------------------------------|
E|------------------------------|------------------------------|

e|------------------------------|-------------------------------|
B|--6-6-6-6-x-x-6-6-6-6-x-x-7---|--7-7-7-7----x-1---x-3---------|
G|--5-5-5-5-x-x-5-5-5-5-x-x-5---|--5-5-5-5----x-2---x-4------2--|
D|--7-7-7-7-x-x-7-7-7-7-x-x-7---|--7-7-7-7----x-3---x-5------2--|
A|------------------------------|----------------------------0--|
E|------------------------------|-------------------------------|



SOLO (wah-wah - rhythm pickup on low volume pot 2-4)

e|------------------------------------|--------------------------------------|
B|------------------------------------|--------------------------------------|
G|--------5--7b---7br-br-br---4--5----|--------5--7b--br--br--br--5--7-------|
D|-5-h-7---------------------------3--|--5h-7----------------------------4---|
A|------------------------------------|--------------------------------------|
E|------------------------------------|--------------------------------------|

e|---------------------------------|--------------------------------------5-|
B|------------8--------------------|----------------------------------------|
G|--------5--10b----10--10--9--10--|--10--9--7--9--7\-5------7-p-5\-4/-5----|
D|-5-h-7---------------------------|----------------------------------------|
A|---------------------------------|----------------------------------------|
E|---------------------------------|----------------------------------------|

         +2
e|---------------------------------------------14brbrbrbr----------|
B|--10--13b---10-------13brbrbr---12brbrbrbr----------------12br---|
G|-----------------12----------------------------------------------|
D|-----------------------------------------------------------------|
A|-----------------------------------------------------------------|
E|-----------------------------------------------------------------|

e|----------17-13-12-13-12\-8-12-8\-7--8--7h8p7------------------| SWITCH TO
B|------13---------------------------------------10-----8--(10)--| TREBLE
G|--14-----------------------------------------------9-----------| P'UP AFTER
D|---------------------------------------------------------------| THIS BAR
A|---------------------------------------------------------------|
E|---------------------------------------------------------------|
                                                      
                                                       slight bend
e|--15b----15b--15--12-------------------------------------|
B|----------------------15b--15----13------13--15------13b-|
G|-------------------------------------14----------14------|
D|---------------------------------------------------------|
A|---------------------------------------------------------|
E|---------------------------------------------------------|

e|------------------------------------|
B|--15--13--15br----13------15b--15b--|
G|----------------------14------------|
D|------------------------------------|
A|------------------------------------|
E|------------------------------------|

e|-------------------------------------------------------------------------|
B|--pb15--pb15--pb15--pb15--pb15--pbr15--13--15--13--12--13--12h13p12------|
G|---------------------------------------------------------------------14--|
D|-------------------------------------------------------------------------|
A|-------------------------------------------------------------------------|
E|-------------------------------------------------------------------------|

                 +1/2
e|------------------------------------------------15b--|
B|--------------12b-------13---15br--13--15--13--------|
G|------12--14--------14-------------------------------|
D|--14-------------------------------------------------|
A|-----------------------------------------------------|
E|-----------------------------------------------------|

                                                   +2
e|--17--19--19b----19br-p17-19b----pbr19--17------20b--20---17------17------|
B|--------------------------------------------17----------------20-----20b--|
G|--------------------------------------------------------------------------|
D|--------------------------------------------------------------------------|
A|--------------------------------------------------------------------------|
E|--------------------------------------------------------------------------|

                                                             +1/2
e|--17------------------------------------------------------------|
B|------20--17--------------------17--20--------------------------|
G|--------------19br--17--19b-------------prb19------17--19--19b--|
D|----------------------------------------------------------------|
A|----------------------------------------------------------------|
E|----------------------------------------------------------------|

+VERSE (with wah-wah)

+HEAVY CHORUS

+MAIN RIFF - end on F power chord at the 1st fret

************************************

| /   slide
| h   hammer-on
| p   pull-off
| x   Mute note
| b   Bend
| pb  Pre-bend
| br  Bend release
| pbr Pre-bend release
| brb Bend release bend

************************************

side note: Dave Sexton is gay and does not believe that this is my tab
Suggest correction
comments
print report bad tab
1 comment total.
0 reply
rustyspliff 10 wrote on March 28 2011, 09:25 pm

http://www.youtube.com/watch?v=ZEcq9kQ5Amo&feature=fvwrel

3:50

guest
You may want to rate the tab now too:
select rating
Please do not post tabs as comments. Select "correction" instead!