Oops, an error
Loading. Please wait.

Crucify The Dead Bass Tab

version 1
version 1

Whole song

Interactive

425 views 9 this week
1 commentread comment
1 2 3 4 5
please rate
add to favorites
launch autoscroll
font size
0
reset
guitar tuner
Autoscroll
slow
fast
+/-
esc
set tempo
stop
Help us to improve Ultimate-Guitar.com Take our survey!
×
Author
i tuned this in Drop D so that there was no need to change tunings between songs

0:19
G|-------------------------------------------------------------------------|
D|-----4h5-----------------------------------------------------------------|
A|---------4-----------------------\-------2-------------------------------|
D|-------------------------------------------------------------------------|
   4 e + a 1 e + a 2 e + a 3 e + a 4 e + a 1 e + a 2 e + a 3 e + a 4 e + a

rest

0:30
G|-----------------------------------------------------------------|
D|-----------------------------------------------------------------|
A|-7---------------\---------------9-----------------------9---\---|
D|-----------------------------------------------------------------|
   1 e + a 2 e + a 3 e + a 4 e + a 1 e + a 2 e + a 3 e + a 4 e + a

G|-----------------------------------------------------------------|
D|-----------------------------------------------------------------|
A|-0-------------------------------2---------------0---------------|
D|---------------------------------------------------------6-------|
   1 e + a 2 e + a 3 e + a 4 e + a 1 e + a 2 e + a 3 e + a 4 e + a

0:41
G|-----------------------------4h6-4---4-4-4---4-4---4-4-4---------|
D|-------------------------4h6-----------------------------8-------|
A|-4-----4-4---4-7---7-6h7-------------------------------------9-\-|
D|-----------------------------------------------------------------|
   1 e + a 2 e + a 3 e + a 4 e + a 1 e + a 2 e + a 3 e + a 4 e + a

G|------------------------------4h6-4---4-4-4---4-4---4-4-4----------|
D|o-------------------------4h6-----------------------------8-------o|
A|o-4-----4-4---4-7---7-6h7-------------------------------------9-7-o|
D|-------------------------------------------------------------------|
    1 e + a 2 e + a 3 e + a 4 e + a 1 e + a 2 e + a 3 e + a 4 e + a

G|-----------------------------4h6-4---4-4-4---4-4---4-4-----------|
D|-------------------------4h6-----------------------------8-6-----|
A|-4-----4-4---4-7---7-6h7-------------------------------------9-7-|
D|-----------------------------------------------------------------|
   1 e + a 2 e + a 3 e + a 4 e + a 1 e + a 2 e + a 3 e + a 4 e + a

1:04
G|-----------------------------------------------------------------|
D|-----------------------------------------------------------------|
A|-4-------------------------------2-------------------------------|
D|-----------------------------------------------------------------|
   1 e + a 2 e + a 3 e + a 4 e + a 1 e + a 2 e + a 3 e + a 4 e + a

rest

1:15
G|-----------------------------------------------------------------|
D|-----------------------------------------------------------------|
A|-4-----------4-------------------2---------------/-------9-------|
D|-------------------------4---\-----------------------------------|
   1 e + a 2 e + a 3 e + a 4 e + a 1 e + a 2 e + a 3 e + a 4 e + a

G|-----------------------------------------------------------------|
D|-------------------------4---4-----------------------------------|
A|-4-------------------------------2---------------/-------9-------|
D|-----------------------------------------------------------------|
   1 e + a 2 e + a 3 e + a 4 e + a 1 e + a 2 e + a 3 e + a 4 e + a

G|-----------------------------------------------------------------|
D|-----------------------------------------------------------------|
A|-4-----------------------9---\---2---------------/-------9---9---|
D|-----------------------------------------------------------------|
   1 e + a 2 e + a 3 e + a 4 e + a 1 e + a 2 e + a 3 e + a 4 e + a

G|-----------------------------------------------------------------|
D|-------------------------4---4-----------------------------------|
A|-4-------------------------------2---------------/-------9---9-9-|
D|-----------------------------------------------------------------|
   1 e + a 2 e + a 3 e + a 4 e + a 1 e + a 2 e + a 3 e + a 4 e + a

1:38
G|-----------------------------------------------------------------|
D|-----------------------------------------------------------------|
A|-7---7-7-7---7-7-7---7-7-7---7-7-9---9-9-9---9-9-9---9-9-9---9-7-|
D|-----------------------------------------------------------------|
   1 e + a 2 e + a 3 e + a 4 e + a 1 e + a 2 e + a 3 e + a 4 e + a

G|-----------------------------------------------------------------|
D|-----------------------------------------------------------------|
A|-0---0-0-0---0-0-0---0-0-0---2h4-2---2-2-2---2-2-0---------------|
D|---------------------------------------------------------6-------|
   1 e + a 2 e + a 3 e + a 4 e + a 1 e + a 2 e + a 3 e + a 4 e + a

1:50
G|-----------------------------4h6-4---4-4-4---4-4---4-4-4---------|
D|-------------------------4h6-----------------------------8-------|
A|-4-----4-4---4-7---7-6h7-------------------------------------9-\-|
D|-----------------------------------------------------------------|
   1 e + a 2 e + a 3 e + a 4 e + a 1 e + a 2 e + a 3 e + a 4 e + a

G|------------------------------4h6-4---4-4-4---4-4---4-4-4----------|
D|o-------------------------4h6-----------------------------8-------o|
A|o-4-----4-4---4-7---7-6h7-------------------------------------9-7-o|
D|-------------------------------------------------------------------|
    1 e + a 2 e + a 3 e + a 4 e + a 1 e + a 2 e + a 3 e + a 4 e + a

G|-----------------------------4h6-4---4-4-4---4-4---4-4-----------|
D|-------------------------4h6-----------------------------8-6-----|
A|-4-----4-4---4-7---7-6h7-------------------------------------9-7-|
D|-----------------------------------------------------------------|
   1 e + a 2 e + a 3 e + a 4 e + a 1 e + a 2 e + a 3 e + a 4 e + a

2:13
G|-----------------------------------------------------------------|
D|-----------------------------------------------------------------|
A|-----------------------------4-------------------------------4---|
D|-6-----------4-------2-----------6-----------4-------2-----------|
   1 e + a 2 e + a 3 e + a 4 e + a 1 e + a 2 e + a 3 e + a 4 e + a

G|-----------------------------------------------------------------|
D|-----------------------------------------------------------------|
A|---------------------------------------------7-------4-----------|
D|-7-----------6-------4-------2---1---------------------------4---|
   1 e + a 2 e + a 3 e + a 4 e + a 1 e + a 2 e + a 3 e + a 4 e + a

G|-----------------------------------------------------------------|
D|-----------------------------------------------------------------|
A|-----------------------------4-------------------------------4---|
D|-6-----------4-------2-----------6-----------4-------2-----------|
   1 e + a 2 e + a 3 e + a 4 e + a 1 e + a 2 e + a 3 e + a 4 e + a

G|-----------------------------------------------------------------|
D|-----------------------------------------------------------------|
A|-----------------------------0---2---2-2-2-0---------------------|
D|-7-----------6-------4-------------------------------6-----------|
   1 e + a 2 e + a 3 e + a 4 e + a 1 e + a 2 e + a 3 e + a 4 e + a

2:39
G|-----------------------------4h6-4---4-4-4---4-4---4-4-4---------|
D|-------------------------4h6-----------------------------8-------|
A|-4-----4-4---4-7---7-6h7-------------------------------------9-7-|
D|-----------------------------------------------------------------|
   1 e + a 2 e + a 3 e + a 4 e + a 1 e + a 2 e + a 3 e + a 4 e + a

G|-----------------------------4h6-4---4-4-4---4-4-4---4---3-------|
D|-------------------------4h6---------------------------4-----4-2-|
A|-4-----4-4---4-7---7-6h7-----------------------------------------|
D|-----------------------------------------------------------------|
   1 e + a 2 e + a 3 e + a 4 e + a 1 e + a 2 e + a 3 e + a 4 e + a

G|-----------------------------4h6-4---4-4-4---4-4---4-4-4---------|
D|-------------------------4h6-----------------------------8-------|
A|-4-----4-4---4-7---7-6h7-------------------------------------9-\-|
D|-----------------------------------------------------------------|
   1 e + a 2 e + a 3 e + a 4 e + a 1 e + a 2 e + a 3 e + a 4 e + a

G|-----------------------------4h6-4---4-4-4---4-4---4-4---3-------|
D|-------------------------4h6---------------------------------4---|
A|-4-----4-4---4-7---7-6h7-----------------------------------------|
D|-----------------------------------------------------------------|
   1 e + a 2 e + a 3 e + a 4 e + a 1 e + a 2 e + a 3 e + a 4 e + a

3:04
G|-----------------------------------------------------------------|
D|-----------------------------------------------------------------|
A|-2-4-4-4-2-4-4-2-4-2-4-4-7---7-7-2-4-4-4-2-4-4-2-4-2-4-4-7-7-7-7-|
D|-----------------------------------------------------------------|
   1 e + a 2 e + a 3 e + a 4 e + a 1 e + a 2 e + a 3 e + a 4 e + a

G|-----------------------------------------------------------------|
D|-----------------------------------------------------------------|
A|-2-4-4-4-2-4-4-2-4-2-4-4-7---7-7-2-4-4-4-2-4-4-4-4---------------|
D|-----------------------------------------------------------------|
   1 e + a 2 e + a 3 e + a 4 e + a 1 e + a 2 e + a 3 e + a 4 e + a

3:18
G|-----------------------------4h6-4---4-4-4---4-4---4-4-4---------|
D|-------------------------4h6-----------------------------8-------|
A|-4-----4-4---4-7---7-6h7-------------------------------------9-\-|
D|-----------------------------------------------------------------|
   1 e + a 2 e + a 3 e + a 4 e + a 1 e + a 2 e + a 3 e + a 4 e + a

G|-----------------------------4h6-4---4-4-4---4-4-----4---3-------|
D|-------------------------4h6---------------------------------4---|
A|-4-----4-4---4-7---7-6h7-----------------------------------------|
D|-----------------------------------------------------------------|
   1 e + a 2 e + a 3 e + a 4 e + a 1 e + a 2 e + a 3 e + a 4 e + a

G|-----------------------------4h6-4---4-4-4---4-4---4-4-4---------|
D|-------------------------4h6-----------------------------8-------|
A|-4-----4-4---4-7---7-6h7-------------------------------------9-7-|
D|-----------------------------------------------------------------|
   1 e + a 2 e + a 3 e + a 4 e + a 1 e + a 2 e + a 3 e + a 4 e + a

G|-----------------------------4h6-4---4-4-4---4-4-4---4---3-------|
D|-------------------------4h6---------------------------4-----4---|
A|-4-----4-4---4-7---7-6h7-----------------------------------------|
D|-----------------------------------------------------------------|
   1 e + a 2 e + a 3 e + a 4 e + a 1 e + a 2 e + a 3 e + a 4 e + a

3:40
G|-----------------------------4h6------------------------9-11-9------|
D|-------------------------4h6-----9-9-9-9-9-9-9-9-9-9-11--------11---|
A|-4-4-4-4-4-4-4-4-4-4-4-4--------------------------------------------|
D|--------------------------------------------------------------------|
   1 e + a 2 e + a 3 e + a 4 e + a 1 e + a 2 e + a 3 e +  a 4  e +  a


G|---------------------------------------------------------------------|
D|-------------------------4-2---2-------------------------------------|
A|-4-4-4-4-4-4-4-4-4-4-4-4-----4---2-2-2-2-2-2-2-2-2-2-2-2-2-2-2---4---|
D|---------------------------------------------------------------------|
   1 e + a 2 e + a 3 e + a 4 e + a 1 e + a 2 e + a 3 e + a 4 e + a

Tabbed by Dave Vucko
Suggest correction
Give kudos to tab author, rate the tab!
1 2 3 4 5
comments
print report bad tab
1 comment total.
-1 reply
kellynickels 3,013 wrote on March 12 2013, 11:38 am

It's dropped C#

guest
You may want to rate the tab now too:
select rating
Please do not post tabs as comments. Select "correction" instead!