Oops, an error
Loading. Please wait.

Crucify The Dead Tab

version 3
version 3

Whole song

Interactive

13,605 views 3 this week
1 commentread comment
1 2 3 4 5
accurate
x 4
add to favorites
launch autoscroll
font size
0
reset
how to read this tab
guitar tuner
Tab Pro tools
  • play this tab
  • loop segment
  • change instrument
  • show fretboard
  • metronome
×
Best way to learn
"Crucify The Dead"
Autoscroll
slow
fast
+/-
esc
set tempo
stop
Contributor
Difficulty
intermediate
-------------------------------------------------------------------------------
             Crucify the Dead- Slash (Ft. Ozzy Osbourne & Taylor Hawkins)
-------------------------------------------------------------------------------
Tabbed by: Louis
Email: GuitarLouis@gmail.com

Tuning: EADGBe



C#m B C#m B

e|--9/11-----------------12-11---11-9-----------------------------|
B|----------9--9\7/9-----------7------5-4-------------------------|
G|----------------------------------------6-6p4h6----------(4h6)--|
D|----------------------------------------------------------------|
A|----------------------------------------------------------------|
E|----------------------------------------------------------------|


C#m              B
The fire started long ago
C#m                    B
The flames burned out, still embers glow
C#m                           B               C#m
So charred and black, there's nothing left to burn,
B
to burn


E               F#
We had the same dream
                A
Lived life to extreme
         B               C#m
A loaded gun jammed by a rose
               B               C#m
The thorns are not around your head
         B                   C#m
Your ego cursed you till you bled
           B           C#m
You cannot crucify the dead 
             B
To me you're dead, yeah


e|--11-12p11\9-----7--9---------------------------------------------------|
B|-------------9--------(7)^8-7--5--7-7h8p7h5-----------------------------|
G|--------------------------------------------6--------4--4---------------|
D|-------------------------------------------------4h6------(4)^6~4-2-----|
A|---------------------------------------------------------------------4--|
E|------------------------------------------------------------------------|

    C#m          B
The future isn't set in stone
  C#m                B
Decisions past leave you alone
  C#m                B                C#m         B
Betrayed us all with your own selfish greed, your greed, yeah

E                F#
New soldiers now say
                     A
That your beggars collect
          B                C#m
Re-crucilified and paid by you
               B               C#m
The thorns are not around your head
         B                   C#m
Your ego cursed you till you bled
           B           C#m
You cannot crucify the dead 
             B
To me you're dead, yeah

G#m                            F#
We were like brothers with the world in our hands
A                           D#
You always have too much to say
G#m                       F#
Someday you look back and you wonder why
E                    F#   B
You let it all slip away, yeah


(Chords during solo are: C#m  B  C#m  B  C#m  B)

e|--^21--21--21--21--21--21--21\/20-(21)^23---16/19-19-19--16-19-16-19-16-16--|
B|----------------------------------------------------------------------------|
G|----------------------------------------------------------------------------|
D|----------------------------------------------------------------------------|
A|----------------------------------------------------------------------------|
E|----------------------------------------------------------------------------|

e|-19p15h16-19p15h16-19p15h16-19p15h19p(15)^16-15-12-14^15~14--12h14p12\11----|
B|----------------------------------------------------------------------------|
G|----------------------------------------------------------------------------|
D|----------------------------------------------------------------------------|
A|----------------------------------------------------------------------------|
E|----------------------------------------------------------------------------|

e|-12-11^12~11-------------------------------------12-------------------12----|
B|-------------14-12-12-------------------------------14~------------------14-|
G|----------------------13-11-------------------------------------------------|
D|----------------------------14-11-14p11h13p11\9-----------14-14p13p11-------|
A|----------------------------------------------------------------------------|
E|----------------------------------------------------------------------------|

e|----------16-12/14---------16--12/14--------19p16~---(14)^16~--14\12-14-12--|
B|--------------------------------------16p14---------------------------------|
G|----------------------------------------------------------------------------|
D|-14p13p11------------14p11--------------------------------------------------|
A|----------------------------------------------------------------------------|
E|----------------------------------------------------------------------------|

|*this part is really fast*|
e|-11-12-11-9-11-9----9-------------------------------------------------------|
B|-----------------12---12-9--------9---------9----9-------9----9---------9---|
G|---------------------------11-9-11--11-9-11---11---11-11^--11^--11-9-11-----|
D|----------------------------------------------------------------------------|
A|----------------------------------------------------------------------------|
E|----------------------------------------------------------------------------|

e|----------------|
B|--12-9-12^14~---|
G|----------------|
D|----------------|
A|----------------|
E|----------------|


C#m         
Crucify the dead
C#m     B   C#m
Crucify the dead

               B               C#m
The thorns are not around your head
         B                   C#m
Your ego cursed you till you bled
           B           C#m
You cannot crucify the dead 
             B
To me you're dead, yeah


e|-9--9--9--9--9-11--11--11--11--11-12--12--12--12--12-14--14--14--14--14-16~-|
B|----------------------------------------------------------------------------|
G|----------------------------------------------------------------------------|
D|----------------------------------------------------------------------------|
A|----------------------------------------------------------------------------|
E|----------------------------------------------------------------------------|
comments
print report bad tab
1 comment total.
0 reply
Iceboy/onfire wrote on February 25 2012, 11:24 am

Sounds cool, but I'm having trouble figuring out the strumming pattern?

I want to post or [tab]
guest
You may want to rate the tab now too:
select rating
Please do not post tabs as comments. Select "correction" instead!