Oops, an error
Loading. Please wait.

Doctor Alibi Bass Tab

version 1
version 1

Whole song

3,015 views 6 this week
1 commentread comment
1 2 3 4 5
accurate
x 3
add to favorites
launch autoscroll
font size
0
reset
guitar tuner
Tab Pro tools
  • play this tab
  • loop segment
  • change instrument
  • show fretboard
  • metronome
×
Best way to learn
"Doctor Alibi"
Autoscroll
slow
fast
+/-
esc
set tempo
stop
Contributor
Difficulty
novice
I do this in my band and noticed there was no bass tab, so here's my interpretation:

Tuning: Standard (EADG)

Intro: (follow drums)

G|----------------------|
D|----------------------|
A|----------------------|
E|-2-----2\0-----2------|

Main Riff: Used for the verse, chorus and in the drum break.
Palm mute/play softer for the verses.
I usually add extra notes in the chorus the fill the sound out,
but it's an easy riff so feel free to experiment:

G|---------------------|
D|---------------------|
A|-----0-0-------------|
E|-2-2-----00-2-2------|

Pre-Chorus
G|----------------------------------|
D|----------------------------------|
A|-4444444433333333222222221111-----|
E|-----------------------------0000-|

Interlude (around 1:25 on the studio version):

G|------------------------|(x3)|----------------------------|
D|------------------------|    |----------------------------|
A|-5----------------------|    |-5--------------------------|
E|-------5-----0---000000-|    |-------5-----2-----22222222-|

Well, there ya go, pretty easy stuff. Enjoy!


| /  slide up
| \  slide down
| h  hammer-on
| p  pull-off
| ~  vibrato
| +  harmonic
| x  Mute note
=============================================================================
comments
We did not receive enough feedback on this tab! Please rate:
print report bad tab
1 2 3 4 5
1 comment total.
0 reply
peter.cram3 wrote on July 29 2015, 06:02 am

love it mate. keep up the great work

I want to post or [tab]
guest
You may want to rate the tab now too:
select rating
Please do not post tabs as comments. Select "correction" instead!