Oops, an error
Loading. Please wait.

Doctor Alibi Bass Tab

version 2
version 2

Whole song

536 views 3 this week
1 commentread comment
1 2 3 4 5
1 last vote to show rating
add to favorites
launch autoscroll
font size
0
reset
guitar tuner
Autoscroll
slow
fast
+/-
esc
set tempo
stop
Help us to improve Ultimate-Guitar.com Take our survey!
×
Author
i tuned this in Drop D so that there was no need to change tunings between songs

0:04
G|-----------------------------------------------------------------|
D|-----------------------------------------------------------------|
A|-----------------------------------------------------------------|
D|-4-------\---------------------2-4---\---------------------------|
   1 + 2 + 3 + 4 + 1 + 2 + 3 + 4 + 1 + 2 + 3 + 4 + 1 + 2 + 3 + 4 +

G|-----------------------6-6-6-----|
D|---------------------4-------9-\-|
A|---------------------------------|
D|-4-------------------------------|
   1 + 2 + 3 + 4 + 1 + 2 + 3 + 4 + 

0:13
G|-----------------------------------------------------------------|
D|-----------------------------------------------------------------|
A|---------0-0-0---------------------------0-0-0-------------------|
D|-4---4-----------2-2-2-4---4-4-2-4---4-4---------2-2-2-4---4-4-2-|
   1 + 2 + 3 + 4 + 1 + 2 + 3 + 4 + 1 + 2 + 3 + 4 + 1 + 2 + 3 + 4 +

G|-----------------------------------------------------------------|
D|-----------------------------------------------------------------|
A|---------0-0-0---------------------------0-0-0-------------------|
D|-4-4-4-----------2-2-2-4---4-4-2-4-4-4-----------2-2-2-4-4-4-4-2-|
   1 + 2 + 3 + 4 + 1 + 2 + 3 + 4 + 1 + 2 + 3 + 4 + 1 + 2 + 3 + 4 +

0:25
G|-------------------------------------------------------------------|
D|o-----------------------------------------------------------------o|
A|o---------0-0-----------------------------0-0---------------------o|
D|--4-4-------------2-2---4---4-4-2-4-4-------------2-2---4---4-4-2--|
    1 + 2 + 3 + 4 + 1 + 2 + 3 + 4 + 1 + 2 + 3 + 4 + 1 + 2 + 3 + 4 +

0:36
G|-----------------------------------------------------------------|
D|-----------------------------------------------------------------|
A|-4-4-4-4-4-4-4-4-4-4-4-4-4-4-4-4-4-4-4-4-4-4-4-4-4-4-4-4-4-2-0---|
D|---------------------------------------------------------------6-|
   1 + 2 + 3 + 4 + 1 + 2 + 3 + 4 + 1 + 2 + 3 + 4 + 1 + 2 + 3 + 4 +

0:42
G|-----------------------------------------------------------------|
D|-----------------------------------------------------------------|
A|---------0-0-0---------------------------0-0-0-------------------|
D|-4-4-4-----------2-2-2-4---4-4-2-4-4-4-4---------2-2-2-4---4-4-2-|
   1 + 2 + 3 + 4 + 1 + 2 + 3 + 4 + 1 + 2 + 3 + 4 + 1 + 2 + 3 + 4 +

G|-----------------------------------------------------------------|
D|-----------------------------------------------------------------|
A|---------0-0-0---------------------------0-0-0-------------------|
D|-4-4-4-----------2-2-2-4---4-4-2-4-4-4-----------2-2-2-4-4-4-4-2-|
   1 + 2 + 3 + 4 + 1 + 2 + 3 + 4 + 1 + 2 + 3 + 4 + 1 + 2 + 3 + 4 +

0:54
G|-------------------------------------------------------------------|
D|o-----------------------------------------------------------------o|
A|o---------0-0-----------------------------0-0---------------------o|
D|--4-4-------------2-2---4---4-4-2-4-4-------------2-2---4---4-4-2--|
    1 + 2 + 3 + 4 + 1 + 2 + 3 + 4 + 1 + 2 + 3 + 4 + 1 + 2 + 3 + 4 +

1:06
G|-----------------------------------------------------------------|
D|-----------------------------------------------------------------|
A|-4-4-4-4-4-4-4-4-4-4-4-4-4-4-4-4-4-4-4-4-4-4-4-4-4-4-4-2-4-2-0---|
D|---------------------------------------------------------------6-|
   1 + 2 + 3 + 4 + 1 + 2 + 3 + 4 + 1 + 2 + 3 + 4 + 1 + 2 + 3 + 4 +

1:13
G|-----------------------------------------------------------------|
D|-----------------------------------------------------------------|
A|---------0-0-0---------------------------0-0-0-------------------|
D|-4-4-4-----------2-2-2-4---4-4-2-4-4-4-4---------2-2-2-4---4-4-2-|
   1 + 2 + 3 + 4 + 1 + 2 + 3 + 4 + 1 + 2 + 3 + 4 + 1 + 2 + 3 + 4 +

G|-----------------------------------------------------------------|
D|-----------------------------------------------------------------|
A|---------0-0-0---------------------------0-0-0-------------------|
D|-4---4-----------2-2-2-4---4-4-2-4-4-4-----------2-2-2-4-4-4-4-2-|
   1 + 2 + 3 + 4 + 1 + 2 + 3 + 4 + 1 + 2 + 3 + 4 + 1 + 2 + 3 + 4 +

1:25
G|-----------------------------------------------------------------|
D|-----------------------------------------------------------------|
A|-5-5-5-5-5-5-5-0---0-0-0-0-0-0-0---------------------------------|
D|---------------------------------2-2-2-2-2-2-2-2---2-2-2-2-2-2-2-|
   1 + 2 + 3 + 4 + 1 + 2 + 3 + 4 + 1 + 2 + 3 + 4 + 1 + 2 + 3 + 4 +

G|-------------------------------------------------------------------|
D|o-----------------------------------------------------------------o|
A|o-5-5-5-5-5-5-5-0-0-0-0-0-0-0-0-0---------------------------------o|
D|----------------------------------2-2-2-2-2-2-2-2-2-2-2-2-2-2-2-2--|
    1 + 2 + 3 + 4 + 1 + 2 + 3 + 4 + 1 + 2 + 3 + 4 + 1 + 2 + 3 + 4 +

1:44
G|-----------------------------------------------------------------|
D|-----------------------------------------------------------7-9-7-|
A|-5-5-5-5-5-5-5-0-0-0-0-0-0-0-0-0-2-2-2-2-2-2-2-6-6-6-6-9-9-------|
D|-----------------------------------------------------------------|
   1 + 2 + 3 + 4 + 1 + 2 + 3 + 4 + 1 + 2 + 3 + 4 + 1 + 2 + 3 + 4 +

1:51
G|-----------------------------------------------------------------|
D|-----------------------------------------------------------------|
A|---------0-0-0---------------------------0-0-0-------------------|
D|-4-4-4-----------2-2-2-4---4-4-2-4-4-4-4---------2-2-2-4---4-4-2-|
   1 + 2 + 3 + 4 + 1 + 2 + 3 + 4 + 1 + 2 + 3 + 4 + 1 + 2 + 3 + 4 +

G|-----------------------------------------------------------------|
D|-----------------------------------------------------------------|
A|---------0-0-0---------------------------0-0-0-------------------|
D|-4---4-----------2-2-2-4---4-4-2-4-4-4-----------2-2-2-4-4-4-4-2-|
   1 + 2 + 3 + 4 + 1 + 2 + 3 + 4 + 1 + 2 + 3 + 4 + 1 + 2 + 3 + 4 +

2:02
G|-----------------------------------------------------------------|
D|-----------------------------------------------------------------|
A|-4-4-4-4-4-4-4-4-4-4-4-4-4-4-4-4-4-4-4-4-4-4-4-4-4-4-4-4-4-2-0---|
D|---------------------------------------------------------------6-|
   1 + 2 + 3 + 4 + 1 + 2 + 3 + 4 + 1 + 2 + 3 + 4 + 1 + 2 + 3 + 4 +

2:09
G|-----------------------------------------------------------------|
D|-----------------------------------------------------------------|
A|---------0-0-0---------------------------0-0-0-------------------|
D|-4-4-4-----------2-2-2-4---4-4-2-4---4-----------2-2-2-4---4-4-2-|
   1 + 2 + 3 + 4 + 1 + 2 + 3 + 4 + 1 + 2 + 3 + 4 + 1 + 2 + 3 + 4 +

rest

2:27
G|-----------------------------------------------------------------|
D|-----------------------------------------------------------------|
A|---------0-0-0-0-------------------------0-0-0-0-----------------|
D|-4-4-4-4---------2-2-2-4-4-4-4-2-4-4-4-4---------2-2-2-4-4-4-4-2-|
   1 + 2 + 3 + 4 + 1 + 2 + 3 + 4 + 1 + 2 + 3 + 4 + 1 + 2 + 3 + 4 +

G|-----------------------------------------------------------------|
D|-----------------------------------------------------------------|
A|---------0-0-0-0-------------------------0-0-0-0-----------------|
D|-4-4-4-4---------2-2-2-4---4-4-2-4-4-4-4---------2-2-2-4-/-16-\--|
   1 + 2 + 3 + 4 + 1 + 2 + 3 + 4 + 1 + 2 + 3 + 4 + 1 + 2 + 3 + 4 +

2:37
G|-----------------------------------------------------------------|
D|-----------------------------------------------------------------|
A|---------0-0-0---------------------------0-0-0-------------------|
D|-4-4-4-----------2-2-2-4---4-4-2-4-4-4-----------2-2-2-4---4-4-2-|
   1 + 2 + 3 + 4 + 1 + 2 + 3 + 4 + 1 + 2 + 3 + 4 + 1 + 2 + 3 + 4 +

G|-----------------------------------------------------------------|
D|-----------------------------------------------------------------|
A|---------0-0-----------------------------0-0-0-------------------|
D|-4-4-4-----------2-2---4---4-4-2-4-4-4-----------2-2-2-4---4-4-2-|
   1 + 2 + 3 + 4 + 1 + 2 + 3 + 4 + 1 + 2 + 3 + 4 + 1 + 2 + 3 + 4 +

2:49
G|-----------------------------------------------------------------|
D|-----------------------------------------------------------------|
A|-----2h4-0-0-2h4-----4---------------2h4-0-0-2h4-----4-----------|
D|-4-4-------------2-----4---4-4-2-4-4-------------2-2---4-4-4-4-2-|
   1 + 2 + 3 + 4 + 1 + 2 + 3 + 4 + 1 + 2 + 3 + 4 + 1 + 2 + 3 + 4 +

G|-----------------------------------------------------------------|
D|-----------------------------------------------------------------|
A|-----2h4-0-0-2h4-----4---------------2h4-0-0-2h4-----------------|
D|-4-4-------------2-----4---4-4-2-4-4-------------2-2-2-4---------|
   1 + 2 + 3 + 4 + 1 + 2 + 3 + 4 + 1 + 2 + 3 + 4 + 1 + 2 + 3 + 4 +

Tabbed by Dave Vucko
Suggest correction
Give kudos to tab author, rate the tab!
1 2 3 4 5
comments
print report bad tab
1 comment total.
-1 reply
kellynickels 3,014 Mar 12, 2013 11:38 AM

It's half step down

guest
You may want to rate the tab now too:
select rating
Wanna post a correction for this tab? Suggest correction