Oops, an error
Loading. Please wait.

Doctor Alibi Tab

version 2
version 2

Whole song

13,197 views 9 this week
no commentswrite comment
1 2 3 4 5
accurate
x 5
add to favorites
launch autoscroll
font size
0
reset
how to read this tab
guitar tuner
Tab Pro tools
  • play this tab
  • loop segment
  • change instrument
  • show fretboard
  • metronome
Autoscroll
slow
fast
+/-
esc
set tempo
stop
Difficulty
intermediate
Doctor Alibi - Slash and Lemmy Kilmeister


--- THIS IS FOR STANDARD TUNING (EADGBe) ---


Main Riff (Intro, Verse, Chorus):

Note: Intro & Chorus are played with the same chords of the
Verse but with different strumming: listen to the song to
get the right thing ;)

e|---------------------------|
B|---------------------------|
G|---------2-2---------------|
D|---4-4---2-2---2-2---4-4---|
A|---4-4---0-0---2-2---4-4---|
E|---2-2---------0-0---2-2---|


Pre-Chorus Riff:

e|----------------------------------------|
B|----------------------------------------|
G|----------------------------------------|
D|---66666666-66666666-6666666666666666---|
A|---44444444-33333333-2222222222222222---|
E|----------------------------------------|

Bridge Riff:

e|-------------------------------------|
B|---3--------3--------3-------3-------|
G|---2-2------2-2------2-2-----2-2-4---|
D|---0-2-2----0-2-2----0-2-2---0-2-4---|
A|-----0-2------0-2------0-2-----0-2---|
E|-------0--------0--------0-----------|

The structure is pretty clear, however here it is:

Intro x8
Verse x4
Pre-Chorus x1
Chorus x4
Verse x4
Pre-Chorus x1
Chorus x4
Bridge x1
Solo + Verse x4
Solo + Pre-Chorus x1
Solo + Chorus x2
-STOP- x4
-Bass & Drums- x4
Chorus x4
Solo + Chorus x4

Feel free to e-mail me any suggestion about changes or fine adjustings!
ppisani2 (at) gmail.com
comments
print report bad tab
I want to post or [tab]
guest
You may want to rate the tab now too:
select rating
Please do not post tabs as comments. Select "correction" instead!