Oops, an error
Loading. Please wait.

Far And Away Tab

version 1
version 1

Solo

Whole song

Interactive

365 views 3 this week
no commentswrite comment
1 2 3 4 5
please rate
add to favorites
launch autoscroll
font size
0
reset
how to read this tab
guitar tuner
Autoscroll
slow
fast
+/-
esc
set tempo
stop
Help us to improve Ultimate-Guitar.com Take our survey!
×
Author
Difficulty
-------------------------------------------------------------------------------
                             Slash - Far and Away
-------------------------------------------------------------------------------


Acoustic Solo for Far and Away

 
E||-------------------------|---------------------|-------------------------|
B||-------------------------|---------------------|-------------------------|
G||-------------------------|---------------------|-------2--0--------------|
D||-------------------------|---------------------|-------------------------|
A||--------------------0-3--|--5b~----------------|-------------5b----3--0--|
E||-----------------3h------|---------------------|-------------------------|


-----------------------------------------|
-----------------------------------------|
-----------------------------------------|
-----0------------------0----------------|
--3--------0~-----~--3h------------------|
--------3h------------------4------------|


---------------------------------------|------------------------------|
---------------------------------------|----------------------1h-(3)h-|
----------------------0----------------|----------------------0--(2)h-|
---------------0s-2-3---2s-0--------0s-|----2-------------------------|
-----------0-3---------------3-0-3h----|------------------------------|
--------3h-----------------------------|------------------------------|


----------------------------------|---------------------------------------|
------1---------------------------|---------------------------------------|
------0---------------------------|---------------------1-----------------|
---------2s-0---------------5b----|-----------5br----3--------------------|
--------------------3--0----------|---------------------------------------|
----------------------------------|---------------------------------------|


---------------------------------|-------------------------------------|
---------------------------------|-------------------------------------|
---------------------------0s----|-----------0h------------------------|
-----------5br----2b-------------|--------3h----3-2~---------------0~--|
---------------------------------|----------------------3-------3h-----|
---------------------------------|-------------------------3-----------|


---------------------------------|-------------------------------------|
---------------------------------|-----------------1---3b--------------|
---------------------------------|------------0s-2---2-----------------|
------------------0--------------|----------0--------------------------|
---------------0-3h------5b---3--|-------3S----------------------------|
------------3h-------------------|-------------------------------------|


---------------------------3b~--|-----------------3--2--1-------|
-------1-3---1---------1--------|---------------------------3b--|
-----------2---------2----------|-------------------------------|
--------------------------------|-------------------------------|
--------------------------------|-------------------------------|
--------------------------------|-------------------------------|

   
--0---3---------3-------------3b--|----------------3b----1---3~--|
--------3b--1------3b--1----1-----|------------------------------|
--------------2-----------2-------|------------------------------|
----------------------------------|------------------------------|
----------------------------------|------------------------------|
----------------------------------|------------------------------|

 
---------------------------|-----------------------------|
------------3b----1--------|--1-------1-----1-----1---0--|
------------------------3--|-------3-----3-----3---------|
---------------------------|-----------------------------|
---------------------------|-----------------------------|
---------------------------|-----------------------------|


----------------------------|------------------------------|
--1----0--1--0--1--0---L-1--|------------------------------|
----------------------------|-----------0-2-0--------------|
----------------------------|-----------------------0-2-0--|
----------------------------|------------------------------|
----------------------------|------------------------------|

  
----------------------------||
----------------------------||
----------------------------||
----------------------------||
----------3-5-3-------------||
----------------------------||



************************************

| /   slide up
| \   slide down
| h   hammer-on
| p   pull-off
| ~   vibrato
| +   harmonic
| x   Mute note
| b   Bend
| pb  Pre-bend
| br  Bend release
| pbr Pre-bend release
| brb Bend release bend

************************************
Suggest correction
What's this?
You can suggest a correction to this tab. Community and Mods will review your correction and vote to approve or reject it.
comments
We did not receive enough feedback on this tab! Please rate:
print report bad tab
1 2 3 4 5
guest
You may want to rate the tab now too:
select rating
Please do not post tabs as comments. Select "correction" instead!