Oops, an error
Loading. Please wait.

Godfather Theme Tab

version 1
version 1

Interactive

363,780 views 930 this week
14 commentsread comments
1 2 3 4 5
accurate
x 54
add to favorites
launch autoscroll
font size
0
reset
how to read this tab
guitar tuner
Tab Pro tools
  • play this tab
  • loop segment
  • change instrument
  • show fretboard
  • metronome
×
Best way to learn
"Godfather Theme"
Autoscroll
slow
fast
+/-
esc
set tempo
stop
Contributor
http://www.youtube.com/watch?v=wPJM4czWkNw&feature=email

E Standard For Tuning
Have Fun Playing, Quite easy :)

--------------------------|
-15__14-15-16-15-15-------|
-------------------15~~~~~|
--------------------------|
--------------------------|
--------------------------|

--------------------------|
-15__14-15-16-15-15-------|
-------------------14~~~~~|
--------------------------|
--------------------------|
--------------------------|

-----------13------------|
-15__14-15---15-14___15b-|
-------------------------|
-------------------------|
-------------------------|
-------------------------|

-----------------------13-12--13--12-----------|
----------14b___-----15-----15--15--15--13-----|
-15-14-15-------14-14-----------------15---14__|
-----------------------------------------------|
-----------------------------------------------|
-----------------------------------------------|

------13-12--13--12--------------------------------------|
---15------15--15--15-12/14-13-12~~~-15b-----14-15~~~~~~~|
-14-------------------------------------14-15------------|
---------------------------------------------------------|
---------------------------------------------------------|
---------------------------------------------------------|

------------------------------------------------12-----|
-------------------------------------15-15-14-13--13___|
-14-15-14-15b-14__15-14--------------------------------|
------------------------15-11___12__-------------------|
-------------------------------------------------------|
-------------------------------------------------------|

-----------------------------------13-12-13-12-----12-13-----13-12--|
-10b-9b-9b-8____10b-8-10b_____--15------------15-13-----15-13-----15|
------------------------------14------------------------------------|
--------------------------------------------------------------------|
--------------------------------------------------------------------|
--------------------------------------------------------------------|

-12------------------------13-12-13-12----------------|
---15-13-15---13------14-15-----------13-15-----------|
------------15--14~~~~---------------------14-13-12~~~|
------------------------------------------------------|
------------------------------------------------------|
------------------------------------------------------|

------------------------------------------------------|
-15b--------------------------------------------------|
-----------14-15--------------------------------------|
----12___15-----14-15-14-15b-14---------11-12_________|
-------------------------------12/15___---------------|
------------------------------------------------------|

comments
print report bad tab
14 comments total. Showing first comments.
+6 reply
tryhonesty wrote on June 6 2009, 11:43 am

nnot in e standard tuning, 1/2 step down

+3 reply
xthelonelywolfx wrote on August 21 2009, 01:03 pm

good tab but it is a 1/2 step down

+1 reply
i_barker wrote on March 13 2010, 05:14 pm

the 2 above are right... when slash played this he was in Guns N' Roses. at that time everything he played was a half step down

I want to post or [tab]
guest
You may want to rate the tab now too:
select rating
Please do not post tabs as comments. Select "correction" instead!