Oops, an error
Loading. Please wait.

Godfather Theme Tab

version 4
version 4

Interactive

75,549 views 66 this week
7 commentsread comments
1 2 3 4 5
x 26
add to favorites
launch autoscroll
font size
0
reset
how to read this tab
guitar tuner
×
Best way to learn
"Godfather Theme"
Autoscroll
slow
fast
+/-
esc
set tempo
stop
Difficulty
Tuning
intermediate
D# G# C# F# A# D#
        
D#||--------------------------------------|
A#||--------------------------------------|
F#||--------------------------------------|
C#||--------------------------------------|
G#||---------8----------------------------|
D#||--8--10-----------10p--8h--10~--------|


------------------------------------10--------13--12--10h--12p--10--------------
--------------------------------10----------------------------------13--------10
----------------------------10--------------------------------------------------
-------------------10h--12------------------------------------------------------
----------8--10-----------------------------------------------------------------
--8h--10------------------------------------------------------------------------


   E   E    E   H          E   Q     E   E    E   H          H         
--10-------------------10----------------10--------------10----------------|
------13p--10--13b--------13--10-------------13--10------------------------|
----------------------------------12b----------------12b-------------------|x[10]
---------------------------------------------------------------------------|
---------------------------------------------------------------------------|
---------------------------------------------------------------------------|


D#||------13------12h--13p--12--10h--12h--|
A#||--13------13--------------------------|
F#||--------------------------------------|
C#||--------------------------------------|
G#||--------------------------------------|
D#||--------------------------------------|


 
--10------10-------------------------|
------13------13--11h--13p--11--10h--|
-------------------------------------|
-------------------------------------|
-------------------------------------|
-------------------------------------|


---------------------------------------------|
---------------------------------------------|
---------------------------------------------|
-12--13--12p--10h--12--10--12--10----------10|
-----------------------------------13--12----|
---------------------------------------------|
---------------------------------------------|


D#|------------------------------------------------------------------------|
A#|-15---14-15-16--15-15---------15---14-15-16--15-15----------------------|
F#|----------------------15---------------------------14-------------------|
C#|------------------------------------------------------------------------|
G#|------------------------------------------------------------------------|
D#|------------------------------------------------------------------------|
                                                 
D#|------------------------------------------------------------------------|
A#|-15---14-15-18--15-14-15^17r15---14^16r14----------14^16r14-------------|
F#|------------------------------------------14^16r14----------14----------|
C#|------------------------------------------------------------------------|
G#|------------------------------------------------------------------------|
D#|------------------------------------------------------------------------|

[Verse]
D#|----10-13-12-10-13-10-12-10---------------------------------------------|
A#|-10-------------------------11-13-10------------------------------------|
F#|------------------------------------------------------------------------|
C#|------------------------------------------------------------------------|
G#|------------------------------------------------------------------------|
D#|------------------------------------------------------------------------|
                             
D#|----10-13-12-10-13-10-12-10---------------------------------------------|
A#|-10-------------------------/10-9-8-------------------------------------|
F#|------------------------------------------------------------------------|
C#|------------------------------------------------------------------------|
G#|------------------------------------------------------------------------|
D#|------------------------------------------------------------------------|
                     
D#|-------------------6-9-9------------------------------------------------|
A#|----6-10-10^13---/8---------------13-11-10-13-11-10-10------------------|
F#|-/7---------------------------10----------------------------------------|
C#|--------------------------/12---------------------------11-12-----------|
G#|------------------------------------------------------------------------|
D#|------------------------------------------------------------------------|
              
D#|-10-10-9-8-10/12-10-----------------------------------------10----------|
A#|--------------------11-10----10-13-10-8----8-11-9-10-----10-------------|
F#|------------------------------------------------------------------------|
C#|------------------------------------------------------------------------|
G#|------------------------------------------------------------------------|
D#|------------------------------------------------------------------------|
                                
D#|-13^12^10--13^12^10--13^12^10-------------------------------------------|
A#|------------------------------12^-12^-12^-12-10-12-10-9-10-12-10-9------|
F#|------------------------------------------------------------------------|
C#|------------------------------------------------------------------------|
G#|------------------------------------------------------------------------|
D#|------------------------------------------------------------------------|

D#|-13-12-10-9-10-12-10-9----9---------------------------------------------|
A#|-----------------------10---10-12-10-9----9----12-----------------------|
F#|---------------------------------------11---11----11-9----9-------------|
C#|-------------------------------------------------------11---11----------|
G#|------------------------------------------------------------------------|
D#|------------------------------------------------------------------------|

D#|-----------------------------9-10---------------------------------------|
A#|--------13-11-10-13-11-10-10--------------------------------------------|
F#|-----10-----------------------------------------------------------------|
C#|-/12--------------------------------------------------------------------|
G#|------------------------------------------------------------------------|
D#|------------------------------------------------------------------------|

************************************

| r  Release
| h  Hammer-on
| p  Pull-off
| ~  Vibrato
| /  Slide up

************************************
Suggest correction
comments
print report bad tab
7 comments total. Showing first comments.
+1 reply
Cody188 10 Aug 21, 2010 08:34 AM

About time someone tabbed the whole thing

0 reply
lkwapien 82 Apr 24, 2011 01:22 AM

I think that the intro is half step to low, but I can be wrong of course

0 reply
guitarluke96 20 Jul 18, 2011 07:25 AM

This a greay tab and really helpful. Cheers.

guest
You may want to rate the tab now too:
select rating
Wanna post a correction for this tab? Suggest correction