Oops, an error
Loading. Please wait.

Godfather Theme Tab

version 5
version 5

Interactive

31,605 views 27 this week
1 commentread comment
1 2 3 4 5
x 7
add to favorites
launch autoscroll
font size
0
reset
how to read this tab
guitar tuner
Autoscroll
slow
fast
+/-
esc
set tempo
stop
Help us to improve Ultimate-Guitar.com Take our survey!
×
Difficulty
intermediate
THE GODFATHER THEME
|----7---9--------9p7h9--------------------|
|----------7^8r7---------------------------|
|------------------------------------------|
|------------------------------------------|
|------------------------------------------|
|------------------------------------------|


|---7h9-----------------------------------|
|--------7-9/11---------------------------|
|-----------------9h11--------------------|
|------------------------9----------------|
|--------------------------9--------------|
|----------------------------9------------|

|------------------------------------------|
|------------------------------------------|
|------------------------------------------|
|------------------------------------------|
|----------------------12^14r12--9---------|
|-12--11--9h11p9---------------------------|

|-------------------------------------------------------------------------------|
|-------------------------------------------------------------------------------|
|-------------------------------------------------------------------------------|
|------------------------11^13--------------------------------------------------|
|---12p9--12^14r12p-----------12p9--12^14r12p9----------------------------------|
|-9------------------------------9----------------------------------------------|

|------------------------------------------------------------------------------------------------|
|------------------------------------------------------------------------------------------------|
|------------------------------------------------------------------------------------------12--11|
|---------------------------------------------------------------12-11h12p11--9-11-9----------9---|
|-12----12-------------------------12--12-10--10h12p10--9h10p9-----------------------------------|
|----12-----11h12p11--9h11p9----9----------------------------------------------------------------|

|----------------------------------------------------------------|
|-15---14-15-16--15-15---------15---14-15-16--15-15--------------|
|----------------------15---------------------------14-----------|
|----------------------------------------------------------------|
|----------------------------------------------------------------|
|----------------------------------------------------------------|
                         br        br      br     br
|------------------------/\--------/\-------------/\-------------|
|-15---14-15-18--15-14-15-(15)---14-(14)---/\---14-(14)----------|
|----------------------------------------14-(14)--------14-------|
|----------------------------------------------------------------|
|----------------------------------------------------------------|
|----------------------------------------------------------------|

|----10-13-12-10-13-10-12-10---------------------------------------|
|-10--------------------------------11-13-10-----------------------|
|------------------------------------------------------------------|
|------------------------------------------------------------------|
|------------------------------------------------------------------|
|------------------------------------------------------------------|
                             s
|----10-13-12-10-13-10-12-10---------------------------------------|
|-10---------------------------------/10-9-8-----------------------|
|------------------------------------------------------------------|
|------------------------------------------------------------------|
|------------------------------------------------------------------|
|------------------------------------------------------------------|
  s        b            b/ s
|-----------/----------6-9-9----------------------------------------------------|
|----6-10-10-----/8------------------13-11-10-13-11-10-10-----------------------|
|-/7--------------------------------10------------------------------------------|
|-------------------------------/12--------------------------------11-12--------|
|-------------------------------------------------------------------------------|
|-------------------------------------------------------------------------------|
              s
|-10-10-9-8-10/12-10--------------------------------------------------10-----------|
|--------------------------11-10----10-13-10-8----8-11-9-10-----10-----------------|
|----------------------------------------------------------------------------------|
|----------------------------------------------------------------------------------|
|----------------------------------------------------------------------------------|
|----------------------------------------------------------------------------------|
                                b   b   b
|-13^12^10--13^12^10--13^12^10----/---/----/-----------------------------------|
|-----------------------------------------12--12--12-12-10-12-10-9-10-12-10-9--|
|------------------------------------------------------------------------------|
|------------------------------------------------------------------------------|
|------------------------------------------------------------------------------|
|------------------------------------------------------------------------------|

|-13-12-10-9-10-12-10-9----9------------------------------------------------------|
|-----------------------------10---10-12-10-9----9----12--------------------------|
|-------------------------------------------------11---11----11-9----9------------|
|--------------------------------------------------------------------11---11------|
|---------------------------------------------------------------------------------|
|---------------------------------------------------------------------------------|
  s
|------------------------------------9-10-----------------------------------|
|--------13-11-10-13-11-10-10-----------------------------------------------|
|-----10--------------------------------------------------------------------|
|-/12-----------------------------------------------------------------------|
|---------------------------------------------------------------------------|
|---------------------------------------------------------------------------|
Suggest correction
comments
print report bad tab
1 comment total.
0 reply
vegos 220 Jun 25, 2016 05:35 PM

it's not bad, but it looks like the strings on the tab are inverted.
It would be great if you correct it as it's don't sound bad!

guest
You may want to rate the tab now too:
select rating
Wanna post a correction for this tab? Suggest correction