Oops, an error
Loading. Please wait.

Gotten Tab

version 2
version 2

Interactive

138,686 views 42 this week
9 commentsread comments
1 2 3 4 5
x 50
add to favorites
launch autoscroll
font size
0
reset
how to read this tab
guitar tuner
Autoscroll
slow
fast
+/-
esc
set tempo
stop
Help us to improve Ultimate-Guitar.com Take our survey!
×
Author
Slash
Gotten (feat. Adam Levine)

a note in parentheses means to let ring the whole measure
except for the (2)-let ring for half the measure.


[Intro/Verse 1]

play 3x
e|------------------------------|------------------------------|
B|------5---4h5---7-5---4h5---5-|------5---4h5---7-5---4h5---5-|
G|--------4-----4-----4---------|--------4-----4-----4---------|
D|--------------------------6---|--------------------------6---|
A|-4(4)-------------------------|-0(0)-------------------------|
E|------------------------------|------------------------------|
                                 1st, 2nd ending
e|------------------------------||------------0-----------------------|
B|------5---4h5---7-5---4h5---5-||--------4-------4---------4-7p5-----|
G|--------4-----4-----4---------||------4---4---4---4-----5-------4---|
D|--------------------------6---||----------------------6-----------6-|
A|------------------------------||-2(2)---------------3---------------|
E|-0(0)-------------------------||------------------------------------|

3rd ending
E|------------0---------------0-------|
B|--------4-------4---------0---------|
G|------4---4---4---4-----6-----6-----|
D|----------------------7---------7---|
A|-2(2)---------------0-------------7-|
E|------------------------------------|


[Pre-Chorus]

E|-----------------------------|------------0----------------0-------|
B|-------5-----5h7-----7-5-----|--------4-------4----------0---------|
G|---------4---------4-------4-|------4---4---4---4------6-----6-----|
D|---4h6-----6-----6-------6---|-----------------------7---------7---|
A|-----------------------------|-2(2)----------------0-------------7-|
E|-0---------------------------|-------------------------------------|

E|-------------------------------------0-------0-------|
B|-------0-----5-0-----------------0h2---2-------2-----|
G|---6-----6-------6-----------2-----------2-------2---|
D|-----6-----6-------6/4---4-----2-----------2-------2-|
A|-4---------------------2---0-------------------------|
E|-----------------------------------------------------|


[Chorus]

e|---7-4-5---|
B|-9-7-5-5-5-|
G|-9-8-6-6-5-|
D|-9-9-6-7-7-|
A|-7-9-4-7-7-|
E|---7---5---|


[Mini-Solo 1/Verse 2]

play 3x
e|------------------------------|------------------------------|
B|------5---4h5---7-5---4h5---5-|------5---4h5---7-5---4h5---5-|
G|--------4-----4-----4---------|--------4-----4-----4---------|
D|--------------------------6---|--------------------------6---|
A|-4(4)-------------------------|-0(0)-------------------------|
E|------------------------------|------------------------------|
                                 1st, 2nd ending
e|------------------------------||-----------0-----------------------|
B|------5---4h5---7-5---4h5---5-||-------4-------4---------4-7p5-----|
G|--------4-----4-----4---------||-----4---4---4---4-----5-------4---|
D|--------------------------6---||---------------------6-----------6-|
A|------------------------------||-2(2)--------------3---------------|
E|-0(0)-------------------------||-----------------------------------|

3rd ending
E|------------0---------------0-------|
B|--------4-------4---------0---------|
G|------4---4---4---4-----6-----6-----|
D|----------------------7---------7---|
A|-2(2)---------------0-------------7-|
E|------------------------------------|


[Pre-Chorus 2]

E|-------------------------|-----------0---------------0-------|
B|-------------5-----5-----|-------4-------4---------0---------|
G|-------4-------4-----4---|-----4---4---4---4-----6-----6-----|
D|---4h6---6-------6-----6-|---------------------7---------7---|
A|-----------7-------------|-2(2)--------------0-------------7-|
E|-0-----------------------|-----------------------------------|

E|-------------------------------------0-------0-------|
B|-------0-----5-0-----------------0h2---2-------2-----|
G|---6-----6-------6-----------2-----------2-------2---|
D|-----6-----6-------6/4---4-----2-----------2-------2-|
A|-4---------------------2---0-------------------------|
E|-----------------------------------------------------|


[Chorus]

e|---7-4-5---|
B|-9-7-5-5-5-|
G|-9-8-6-6-5-|
D|-9-9-6-7-7-|
A|-7-9-4-7-7-|
E|---7---5---|


[Bridge/Mini-Solo 2]


[Verse 3]

play 1x
e|------------------------------|------------------------------|
B|------5---4h5---7-5---4h5---5-|------5---4h5---7-5---4h5---5-|
G|--------4-----4-----4---------|--------4-----4-----4---------|
D|--------------------------6---|--------------------------6---|
A|-4(4)-------------------------|-0(0)-------------------------|
E|------------------------------|------------------------------|
                                 
e|------------------------------|------------0---------------0-------|
B|------5---4h5---7-5---4h5---5-|--------4-------4---------0---------|
G|--------4-----4-----4---------|------4---4---4---4-----6-----6-----|
D|--------------------------6---|----------------------7---------7---|
A|------------------------------|-2(2)---------------0-------------7-|
E|-0(0)-------------------------|------------------------------------|


[Chorus]

e|---7-4-5---|
B|-9-7-5-5-5-|
G|-9-8-6-6-5-|
D|-9-9-6-7-7-|
A|-7-9-4-7-7-|
E|---7-x-5---|



************************************

| x    Dead note
| (n)  Ghost note
| h    Hammer-on
| p    Pull-off
| /    Slide up

************************************
Suggest correction
comments
print report bad tab
9 comments total. Showing first comments.
+11 reply
FRANKthaTANK42 10 May 10, 2010 06:49 PM

This tab just gets me like I've never been gotten before.

+2 reply
420ismybday 10 May 17, 2010 04:23 PM

damn that was well said man!!!!!! kudos to you... that made my day much happier. nice tabs man excellent!

0 reply
mean0machine 10 May 21, 2010 05:40 AM

ummm, the notes are fairly spot on but slash plays it up at the 7th fret. i find the proper way (slashes way) is much easier and fluent

guest
You may want to rate the tab now too:
select rating
Wanna post a correction for this tab? Suggest correction