Oops, an error
Loading. Please wait.
We have Chord Pro version of Gotten.
It's the closest thing you can get to the original song and it has interactive parts. Check out the tab »
×
by Slash
5,512 views 3 this week
no commentswrite comment
1 2 3 4 5
x 3
add to favorites
launch autoscroll
font size
0
reset
how to read this tab
guitar tuner
backing track
0:00
0:00
Autoscroll
slow
fast
+/-
esc
set tempo
stop
Author
Difficulty
novice
Chords:
E - 022100
B - 799877
C#m - x46654
A - 577655
C - 81010988


Intro/Verse:

E|-------------------------------------------------|
B|--------5-----4h5-------7--5------4h5----5-------|
G|-----------4---------4----------4------4---------|
D|-------------------------------------------------|
A|---4---------------------------------------------|
E|-------------------------------------------------|

E|-------------------------------------------------|
B|--------5-----4h5-------7--5------4h5----5-------|
G|-----------4---------4----------4------4---------|
D|-------------------------------------------------|
A|---0---------------------------------------------|
E|-------------------------------------------------|

E|-------------------------------------------------|
B|--------5-----4h5-------7--5------4h5----5-------|
G|-----------4---------4----------4------4---------|
D|-------------------------------------------------|
A|-------------------------------------------------|
E|---0---------------------------------------------|

E|---------------0-------------------------------|
B|----------4----------4--------------5-7-5------|
G|--------4---4------4---4----------5-------5----|
D|--------------------------------5-----------5--|
A|----2-------------------------3----------------|
E|-----------------------------------------------|

Pre-chorus:

.........Im out of love but I take it from the past
E|---------------0-------------------------------|
B|----------4--------4---------------0-5---------|
G|--------4---4----4---4-----------6-----6-------|
D|-------------------------------7---------7-----|
A|----2------------------------0-----------------|
E|-----------------------------------------------|

E|------------------------------------------------|
B|-----------5-----5h7--------7--5----------------|
G|--------------4----------4----------4-----------|
D|----4h6---------------6----------6--------------|
A|------------------------------------------------|
E|-0----------------------------------------------|

........Im out of words cause I'm sure it'll never last
E|---------------0-------------------------------|
B|----------4--------4---------------0-5---------|
G|--------4---4----4---4-----------6-----6-------|
D|-------------------------------7---------7-----|
A|----2------------------------0-----------------|
E|-----------------------------------------------|

E|-------------------------------------------------0-------0-----------|
B|-----------0-----5--0-----------------------0h2-----2------2---------|
G|------6------6--------6-----------------2-------------2------2-------|
D|--------6------6--------6/4-----4---------2-------------2------(2)---|
A|---4--------------------------2------0-------------------------------|
E|---------------------------------------------------------------------|

And in the second pre-chorus the second bar changes to this:

E|-------------------0--------------|
B|--------------5------5-------5----|
G|-----------4-----------4---4------|
D|----4h6------------------6--------|
A|----------------------------------|
E|-0--------------------------------|

Chorus:

E                  B                  C#m
I've been saving these last words for one last miracle
     A               B
But now I'm not sure
E                    B
I can't save you if you don't let me
C#m                         A          C 
You just get me like I've never been gotten before

The second chorus before the solo is the same except you add one more line in the end:
C#m  B          A          C
    Like I've never been gotten before
Suggest correction
Give kudos to tab author, rate the tab!
1 2 3 4 5
comments
print report bad tab
guest
You may want to rate the tab now too:
select rating
Wanna post a correction for this tab? Suggest correction