Oops, an error
Loading. Please wait.

Gotten Tab

version 4
version 4

Interactive

3,672 views 3 this week
no commentswrite comment
1 2 3 4 5
please rate
add to favorites
launch autoscroll
font size
0
reset
how to read this tab
guitar tuner
Autoscroll
slow
fast
+/-
esc
set tempo
stop
Help us to improve Ultimate-Guitar.com Take our survey!
×
Author
Difficulty
intermediate
Gotten - Slash
-------------------------------------------------------------------------------
Tabbed by: HardcoreChilly
Email:dakotapauley@live.ca

Tuning: EADGBe
Intro x2
e|---------------------------------------------------------------------|
B|-----5----4h5-----7--5----4h5--5-------5----4h5---7--5----4h5--5-----|
G|-------4-------4--------4--------4-------4------4-------4---------4--|
D|---------------------------------------------------------------------|
A|--4---------------------------------0--------------------------------|
E|---------------------------------------------------------------------|

e|--------------------------------------------------------------|
B|-----5-----4h5----7--5---4h5---5-----------------4—5p4--4-----|
G|--------4------4-------4----------4-----------4------------4--|
D|-------------------------------------------4------------------|
A|---------------------------------------2----------------------|
E|--0-----------------------------------------------------------|

e|----------------------------|
B|---------------5—7p5--5-----|
G|------------5------------5--|
D|---------5------------------|
A|----3-----------------------|
E|----------------------------|end of intro

Verse x1
e|---------------------------------------------------------------------|
B|-----5----4h5-----7--5----4h5--5-------5----4h5---7--5----4h5--5-----|
G|-------4-------4--------4--------4-------4------4-------4---------4--|
D|---------------------------------------------------------------------|
A|--4---------------------------------0--------------------------------|
E|---------------------------------------------------------------------|

e|--------------------------------------------------------------|
B|-----5-----4h5----7--5---4h5---5-----------------4—5p4--4-----|
G|--------4------4-------4----------4-----------4------------4--|
D|-------------------------------------------4------------------|
A|---------------------------------------2----------------------|
E|--0-----------------------------------------------------------|

e|-------------------------------------------------------------------------------------|
B|------------5----------------------------5---7p5-------7---------7-------------------|
G|-------6--------6----------------------------------4-------4-------4-----------------|
D|-------7------------7-\-----------4h6--------------------------6-------6-------------|
A|--0----------------------------------------------------------------------------------|
E|-----------------------------0-------------------------------------------------------|

e|----------------------------------------------------------------------------------|
B|-------------4—5p4--4-------------------5-----------------------------------------|
G|---------4-------------4----------6--------6--------------------------------------|
D|------4---------------------------7-----------7-----------------------------------|
A|---2--------------------------0------------------0--------------------------------|
E|----------------------------------------------------------------------------------|

e|---------------------------------------------------------------------------------|
B|-----------------5--------------5---------------5------------4-------------------|
G|---------6---------------6---------------6-----------------4---------------------|
D|------------6---------------6---------------6-----------4------------------------|
A|---4-----------------4---------------4----------------2--------------------------|
E|---------------------------------------------------------------------------------|

e|---------------------0-----------------------------------------------------------|
B|----------0h2---------------2----------------------------------------------------|
G|-------2--------2--------2-----2-------------------------------------------------|
D|-----------------------------------2---------------------------------------------|
A|--0-----------------------------------0------------------------------------------|
E|---------------------------------------------------------------------------------|
Chorus x1
e|---0-0-0-0-0-0-0-0-0------------------------2-2-2-2-2-2-2-2-2-2--|
B|---0-0-0-0-0-0-0-0-0-----4-4-4-4-4-4-4-4-4--2-2-2-2-2-2-2-2-2-2--|
G|---1-1-1-1-1-1-1-1-1-----4-4-4-4-4-4-4-4-4--2-2-2-2-2-2-2-2-2-2--|
D|---2-2-2-2-2-2-2-2-2-----4-4-4-4-4-4-4-4-4--4-4-4-4-4-4-4-4-4-4--|
A|---2-2-2-2-2-2-2-2-2-----2-2-2-2-2-2-2-2-2--4-4-4-4-4-4-4-4-4-4--|
E|---0-0-0-0-0-0-0-0-0------------------------2-2-2-2-2-2-2-2-2-2--|
e|-----------------------------------------------------------------|
B|--2-2-2-2-2-2-2-2-2-2--4-4-4-------------------------------------|
G|--2-2-2-2-2-2-2-2-2-2--4-4-4-------------------------------------|
D|--2-2-2-2-2-2-2-2-2-2--4-4-4-------------------------------------|
A|--0-0-0-0-0-0-0-0-0-0- 2-2-2-------------------------------------|
E|-----------------------------------------------------------------|

e|---0-0-0-0-0-0-0-0-0------------------------2-2-2-2-2-2-2-2-2-2--|
B|---0-0-0-0-0-0-0-0-0-----4-4-4-4-4-4-4-4-4--2-2-2-2-2-2-2-2-2-2--|
G|---1-1-1-1-1-1-1-1-1-----4-4-4-4-4-4-4-4-4--2-2-2-2-2-2-2-2-2-2--|
D|---2-2-2-2-2-2-2-2-2-----4-4-4-4-4-4-4-4-4--4-4-4-4-4-4-4-4-4-4--|
A|---2-2-2-2-2-2-2-2-2-----2-2-2-2-2-2-2-2-2--4-4-4-4-4-4-4-4-4-4--|
E|---0-0-0-0-0-0-0-0-0------------------------2-2-2-2-2-2-2-2-2-2--|

e|-------------5-----------------------------------------------------------------|
B|---2---------5-----------------------------------------------------------------|
G|---2---------5-----------------------------------------------------------------|
D|---2---------5-----------------------------------------------------------------|
A|---0---------------------------------------------------------------------------|
E|-------------------------------------------------------------------------------|

Then Repeat everything so far......
But after playing the second chorus, play this before going to solo:
e|--------------------------------5--|
B|---5-5-5-5-5-5-4-4-4-4---2------5--|
G|---6-6-6-6-6-6-4-4-4-4---2------5--|
D|---6-6-6-6-6-6-4-4-4-4---2------5--|
A|---4-4-4-4-4-4-2-2-2-2---0---------|
E|-----------------------------------|
Solo (Backup Guitar) : C#m (D) A (A) E (B) C#m x3 Aflat A

e|---------------------------------------------------------------------|
B|-----5----4h5-----7--5----4h5--5-------5----4h5---7--5----4h5--5-----|
G|-------4-------4--------4--------4-------4------4-------4---------4--|
D|---------------------------------------------------------------------|
A|--4---------------------------------0--------------------------------|
E|---------------------------------------------------------------------|

e|--------------------------------------------------------------|
B|-----5-----4h5----7--5---4h5---5-----------------4—5p4--4-----|
G|--------4------4-------4----------4-----------4------------4--|
D|-------------------------------------------4------------------|
A|---------------------------------------2----------------------|
E|--0-----------------------------------------------------------|


e|-------------------------------------------------------------------------------|
B|---------------2---------------------------------------------------------------|
G|--------2----------2-----------------------------------------------------------|
D|-----2---------------2---------------------------------------------------------|
A|--0----------------------0-----------------------------------------------------|
E|-------------------------------------------------------------------------------|

Play chorus x2 then end on E
Thanks! (first tab)
************************************

| /   slide up
| \   slide down
| h   hammer-on
| p   pull-off
| ~   vibrato
| +   harmonic
| x   Mute note
| b   Bend
| pb  Pre-bend
| br  Bend release
| pbr Pre-bend release
| brb Bend release bend
Suggest correction
What's this?
You can suggest a correction to this tab. Community and Mods will review your correction and vote to approve or reject it.
comments
We did not receive enough feedback on this tab! Please rate:
print report bad tab
1 2 3 4 5
guest
You may want to rate the tab now too:
select rating
Please do not post tabs as comments. Select "correction" instead!