Oops, an error
Loading. Please wait.

Gotten Tab

version 6
version 6

Interactive

2,744 views 6 this week
no commentswrite comment
1 2 3 4 5
2 more votes to show rating
add to favorites
launch autoscroll
font size
0
reset
how to read this tab
guitar tuner
Autoscroll
slow
fast
+/-
esc
set tempo
stop
Help us to improve Ultimate-Guitar.com Take our survey!
×
Author
-----------------------------------------------------------------------------
                             GOTTEN - Slash
-----------------------------------------------------------------------------
Tabbed by: guyandguitar$


Tuning:Standard

Next to each kind of "part" of the tab, I have tabbed the general position your
fingers should be in for the duration of that part..
Intro:

Assume this chord (E) shape for intro
e|--0--|
B|--7--|
G|8-9--|
D|--9--|
A|--0--|
E|--0--|


e|---------------------------|  X3 First time as is, then the lyrics start.
B|-----------7---------------|     Second time with open A at start
G|-9---8h9-----9---8h9---9---|     Third time with open E at start
D|---9-----9-----9-----9-----|
A|---------------------------|
E|---------------------------|

Then..
e|---------0--------  For this part      e|--0--|
B|---0---0---0---0--  have your fingers  B|--0--|
G|-----8-------8----  in this position:  G|--8--|
D|------------------                     D|--0--|
A|------------------                     A|--0--|
E|-7----------------                     E|--7--|

Then..
e|---------0----0---------| For this part      e|--0--|
B|------------------------| have your fingers  B|--0--|
G|-----------11-----------| in this position:  G|--11-|
D|------10--------10------|                    D|--10-|
A|---10---------------10--|                    A|--10-|
E|-8----------------------|                    E|--8--|
Play the above from
 the top three times, but on the third time do not play the part directly above
( e|--0--| )
( B|--0--| )
( G|--11-| )
( D|--10-| )
( A|--10-| )
( E|--8--| ) instead move onto this:


e|---------0----------|                         e|--0--|
B|-------0------------|      finger             B|--0--|
G|-----6-----6--------|      position is:       G|--6--|
D|---7---------7------|                         D|--7--|
A|-0-------------7----|                         A|--7--|
E|--------------------|                         E|--0--|

Then..
e|--------0---0---------0----------|            e|--0--|      e|--0--|
B|---------------------------------|            B|--0--|      B|--0--|
G|--------------11---11------------|            G|--0--| and: G|--11-|
D|----------9------9---------------|            D|--9--|      D|--9--|
A|---9h11------------------11-10---|            A|9-11-|      A|--9--|
E|-0-------------------------------|            E|--0--|      E|--0--|

Then back to..
e|---------0--------|---------0----------|
B|---0---0---0---0--|-------0------------|
G|-----8-------8----|-----6-----6--------|
D|------------------|---7---------7------|
A|------------------|-0-------------7----|
E|-7----------------|--------------------|

Then..
e|-------------0--------------|                  e|--0--|
B|-------0-------0------------|                  B|--6--|
G|---6-----6-------6----------|                  G|--6--|
D|-----6-----6-------6---4\2--|                  D|--0--|
A|-4-------------------4------|                  A|--4--|
E|----------------------------|                  E|--0--|

Then last part going into the chords..
e|-----------0-------0--------|                  e|--0--|
B|-------0h2---2-------0------|                  B|--2--|
G|-----2---------2-------2----|                  G|--2--|
D|---2-------------2-------2--|                  D|--2--|
A|-0--------------------------|                  A|--0--|
E|----------------------------|                  E|--0--|

The used chords are as follows:
    E     B    c#m    A     C
e|--0--|--2--|--4--|--5--|--3--|
B|--0--|--4--|--5--|--5--|--5--|
G|--1--|--4--|--6--|--6--|--5--|
D|--2--|--4--|--6--|--7--|--5--|
A|--2--|--2--|--4--|--7--|--3--|
E|--0--|-----|-----|--5--|-----|

Finnish on E

Fin
************************************

| /   slide up
| \   slide down
| h   hammer-on
Suggest correction
Give kudos to tab author, rate the tab!
1 2 3 4 5
comments
print report bad tab
guest
You may want to rate the tab now too:
select rating
Wanna post a correction for this tab? Suggest correction