Oops, an error
Loading. Please wait.

I Hold On bass

version 1
version 1

Whole song

Interactive

by Slashfeat.Kid Rock
959 views 1 this week
no commentswrite comment
1 2 3 4 5
x 3
add to favorites
×
Save as Personal and add changes to this tab that will be seen only by you. Learn more ›
×
You can save this tab as Personal to edit and correct it or add notes. All changes will be seen only by you. Learn more »
launch autoscroll
font size
0
reset
guitar tuner
backing track
0:00
0:00
edit
Autoscroll
slow
fast
+/-
esc
set tempo
stop
Author
0:04
G|-----------------------------------------------------------------|
D|---------------------7---5-------------------------------5---2---|
A|-------------------7---------------------5---3-------3h5---------|
D|-7-------7-----------------------3---5---------------------------|
   1 e + a 2 e + a 3 e + a 4 e + a 1 e + a 2 e + a 3 e + a 4 e + a 

G|-----------------------------------------------------------------|
D|---------------------7---5-----------------------------/-7---5---|
A|-------------------7---------------------5---3-------------------|
D|-7-------7-----------------------3---5---------------------------|
   1 e + a 2 e + a 3 e + a 4 e + a 1 e + a 2 e + a 3 e + a 4 e + a 

0:15
G|-----------------------------------------------------------------|
D|-----------------------------------------------------------------|
A|-----------------------------------------5---3-------3---5/7-5/7-|
D|-7-------7-----7-5---5---5---5---3---5---------------------------|
   1 e + a 2 e + a 3 e + a 4 e + a 1 e + a 2 e + a 3 e + a 4 e + a 

G|-----------------------------------------------------------------|
D|-----------------------------------------------------------------|
A|---------------------------------------------3---------------3---|
D|-7---7---7---7-7-5---5---5---5---3-----------------------5/7-----|
   1 e + a 2 e + a 3 e + a 4 e + a 1 e + a 2 e + a 3 e + a 4 e + a 

0:25
G|-----------------------------------------------------------------|
D|---------------------------------3---2-----------------------5---|
A|-----------------------------------------5---3-------3---5/7-----|
D|-7-------------7-5---5---5---5-----------------------------------|
   1 e + a 2 e + a 3 e + a 4 e + a 1 e + a 2 e + a 3 e + a 4 e + a 

G|-----------------------------------------------------------------|
D|---------------------------------------------------------2---5---|
A|-----------------------------------------5---3-------3-----------|
D|-7---7---------7-5---5-----------3---5---------------------------|
   1 e + a 2 e + a 3 e + a 4 e + a 1 e + a 2 e + a 3 e + a 4 e + a 

0:36
G|---------------------------------------------5-7-5-------5-------|
D|-------------------------2---3-------3---7-----------7-------7---|
A|-5-------5-------5---5-------------------------------------------|
D|-----------------------------------------------------------------|
   1 e + a 2 e + a 3 e + a 4 e + a 1 e + a 2 e + a 3 e + a 4 e + a 

G|-----------------------------------------------------------------|
D|-------------------------2---3-----------------------------------|
A|-5-------5-------5---5-------------------------------0-3-5---3-3-|
D|-------------------------------------7-\-3-----2-3-2-------------|
   1 e + a 2 e + a 3 e + a 4 e + a 1 e + a 2 e + a 3 e + a 4 e + a 

0:47
G|-----------------------------------------------------------------|
D|---------------------5---2---------------------------------------|
A|-3---3---3---3-/-7-----------------------------5-7---5---3-------|
D|-----------------------------2-------2---2-------------------5---|
   1 e + a 2 e + a 3 e + a 4 e + a 1 e + a 2 e + a 3 e + a 4 e + a 

G|-----------------------------------------------------------------|
D|---------7-------5-----------3-------3---3---2-3-2-0-2---0-------|
A|-----7-------7-------7---5---------------------------------3-2-3-|
D|-7---------------------------------------------------------------|
   1 e + a 2 e + a 3 e + a 4 e + a 1 e + a 2 e + a 3 e + a 4 e + a 

0:59
G|-----------------------------------------------------------------|
D|---------------------5---2---------------2-------2---0-----------|
A|-3---3---3---3-/-7---------------------------------------3-------|
D|-----------------------------2-------2---------2-------------5---|
   1 e + a 2 e + a 3 e + a 4 e + a 1 e + a 2 e + a 3 e + a 4 e + a 

G|-----------------------------------------------------------------|
D|---------7-------5---5---2---3-------3---3-----------------------|
A|-------------7---------------------------------------------------|
D|-7---7-----------------------------------------------------------|
   1 e + a 2 e + a 3 e + a 4 e + a 1 e + a 2 e + a 3 e + a 4 e + a 

G|-----------------------------------------------------------------|
D|-----------------------------------------------------------------|
A|---------------------------------3---------------3---------------|
D|-3-------------------------------------------------------5-------|
   1 e + a 2 e + a 3 e + a 4 e + a 1 e + a 2 e + a 3 e + a 4 e + a 

1:16
G|-----------------------------------------------------------------|
D|---------------------7---5-------------------------------5---2---|
A|-------------------7---------------------5---3-------3h5---------|
D|-7-------7-----------------------3---5---------------------------|
   1 e + a 2 e + a 3 e + a 4 e + a 1 e + a 2 e + a 3 e + a 4 e + a 

G|---------------------------------------------------------5h7-5---|
D|---------------------7---5---------------------------5h7---------|
A|-------------------7---------------------5---3---3h5-------------|
D|-7-------7-----------------------3---5---------------------------|
   1 e + a 2 e + a 3 e + a 4 e + a 1 e + a 2 e + a 3 e + a 4 e + a 

1:27
G|-----------------------------------------------------------------|
D|---------7---------------5-------3-----2-----------------5h7-5---|
A|---------------------------------------------3-------3h5-------5-|
D|-7-------------7-5---5-------------------------------------------|
   1 e + a 2 e + a 3 e + a 4 e + a 1 e + a 2 e + a 3 e + a 4 e + a 

G|-----------------------------------------------------------------|
D|---------7---------------5-------3-----2---2---------------------|
A|---------------------------------------------3-------3-------3---|
D|-7---7---------7-5---5---------------------------------5-3h5-----|
   1 e + a 2 e + a 3 e + a 4 e + a 1 e + a 2 e + a 3 e + a 4 e + a 

1:38
G|-----------------------------------------------------------------|
D|-----------------5---5---5-------------------------------5-7-5---|
A|---------------7-----------------8-------\---3-------7---------7-|
D|-7---------------------------------------------------------------|
   1 e + a 2 e + a 3 e + a 4 e + a 1 e + a 2 e + a 3 e + a 4 e + a 

G|-----------------------------------------------------------------|
D|---------7---------------5---------------------------------------|
A|---------------------------------8-------\---3-------3---5-7-5-3-|
D|-7-------------7-5---5-------------------------------------------|
   1 e + a 2 e + a 3 e + a 4 e + a 1 e + a 2 e + a 3 e + a 4 e + a 

1:49
G|---------------------------------------------5-5-5-------5-------|
D|-------------------------2---3-------3-/-7-----------7-------7---|
A|-5-------5-------5---5-------------------------------------------|
D|-----------------------------------------------------------------|
   1 e + a 2 e + a 3 e + a 4 e + a 1 e + a 2 e + a 3 e + a 4 e + a 

G|-----------------------------------------------------------------|
D|-------------------------2---3-----------------------------------|
A|-5-------5---5---5---5-------------------------------0-3-5---3-3-|
D|-------------------------------------7-\-3---2-2-3---------------|
   1 e + a 2 e + a 3 e + a 4 e + a 1 e + a 2 e + a 3 e + a 4 e + a 

2:01
G|-----------------------------------------------------------------|
D|---------------------5---2---------------------------------------|
A|-3---3---3---3-/-7-----------------------------5-7---5---3-------|
D|-----------------------------2-------2---2-------------------5---|
   1 e + a 2 e + a 3 e + a 4 e + a 1 e + a 2 e + a 3 e + a 4 e + a 

G|-----------------------------------------------------------------|
D|-----------------------------------------------------------------|
A|-------------------------------------------0-3h5-3---------------|
D|-7---7---7---7---5---5---5---3-------3---5-----------3---5---7---|
   1 e + a 2 e + a 3 e + a 4 e + a 1 e + a 2 e + a 3 e + a 4 e + a 

2:12
G|-----------------------------------------------------------------|
D|---------------------5---2---------------2-------2---0-----------|
A|-3---3---3---3-/-7---------------------------------------3-------|
D|-----------------------------2-------2---------2-------------5---|
   1 e + a 2 e + a 3 e + a 4 e + a 1 e + a 2 e + a 3 e + a 4 e + a 

G|-----------------------------------------------------------------|
D|---------7-------5-------------------3---3---3-3-3-2-------------|
A|-----7-------7-------7---5---8-----------------------3---0-------|
D|-7-----------------------------------------------------------5---|
   1 e + a 2 e + a 3 e + a 4 e + a 1 e + a 2 e + a 3 e + a 4 e + a 

G|-----------------------------------------------------------------|
D|-----------------------------------------------------------------|
A|---------------------------------3-------------------------------|
D|-3---------------------------------------------------------------|
   1 e + a 2 e + a 3 e + a 4 e + a 1 e + a 2 e + a 3 e + a 4 e + a 

2:28
G|-----------------------------------------------------5-7-5-------|
D|---------7---------------5-------------------------5---------5---|
A|-------------7---------------5-----------3h5-3-----------------7-|
D|-7---7---------7-5---5---------5-3---5---------------------------|
   1 e + a 2 e + a 3 e + a 4 e + a 1 e + a 2 e + a 3 e + a 4 e + a 

G|-----------------------------------------------------------------|
D|---------7---------------5-----------------------------------5---|
A|-------------7---------------5-----------5---3-----0-3-5-5h7---7-|
D|-7---7---------7-5---5---------5-3---5---------------------------|
   1 e + a 2 e + a 3 e + a 4 e + a 1 e + a 2 e + a 3 e + a 4 e + a 

2:40
G|-----------------------------------------------------------------|
D|---------7---------------5---------------------------5-7-5-------|
A|-------------7---------------5-----------5---3-----3-------7-5-7-|
D|-7---7---------7-5---5---------5-3---5---------------------------|
   1 e + a 2 e + a 3 e + a 4 e + a 1 e + a 2 e + a 3 e + a 4 e + a 

G|-----------------------------------------------------------------|
D|---------7---------------5---------------------------5-7-5-------|
A|-------------7---------------5-----------5---3-----3---------7-5-|
D|-7---7---------7-5---5---------5-3---5---------------------------|
   1 e + a 2 e + a 3 e + a 4 e + a 1 e + a 2 e + a 3 e + a 4 e + a 

2:52
G|-----------------------------------------------------------------|
D|---------------------------------5---5---5---5---5---5---5-------|
A|-----------------------------5h7-----------------------------5---|
D|-5---5---5---5---5---5---5h7-------------------------------------|
   1 e + a 2 e + a 3 e + a 4 e + a 1 e + a 2 e + a 3 e + a 4 e + a 

G|-----------------------------------------------------------------|
D|-----------------------------------------7-5---7---5-------------|
A|-----------------------------3h5-3---3-------7-------7---5-5-7---|
D|-3---3---3---3---3---3---3h5-------------------------------------|
   1 e + a 2 e + a 3 e + a 4 e + a 1 e + a 2 e + a 3 e + a 4 e + a 

3:05
G|-----------------------------------------------------------------|
D|---------------------------------5---5-5-5---5-5-6---6-6-6---6-6-|
A|-----------------------------5h7---------------------------------|
D|-5---5---5---5---5---5---5---------------------------------------|
   1 e + a 2 e + a 3 e + a 4 e + a 1 e + a 2 e + a 3 e + a 4 e + a 

G|-----------------------------------------------------------------|
D|-7-----------------------5---------------------------------------|
A|-----7-\-0-----------5-------------------------------------------|
D|-------------2---5-----------3-------3---3---3---3---3---3---3---|
   1 e + a 2 e + a 3 e + a 4 e + a 1 e + a 2 e + a 3 e + a 4 e + a 

G|---------------------------------|
D|---------------------------------|
A|-8---8---8---8---8-8-8-8-8-------|
D|---------------------------------|
   1 e + a 2 e + a 3 e + a 4 e + a 

3:20
G|-----------------------------------------------------------------|
D|---------------------5---2---------------2-------2---0-----------|
A|-3---3---3---3-/-7---------------------------------------3-------|
D|-----------------------------2-------2---------2-------------5---|
   1 e + a 2 e + a 3 e + a 4 e + a 1 e + a 2 e + a 3 e + a 4 e + a 

G|-----------------------------------------------------------------|
D|-----------------------------3-------2---------------------------|
A|-------------------------------------------3-5-3-5---3-------3h5-|
D|-7---7---7---7---5---5---5-------------------------------5-5-----|
   1 e + a 2 e + a 3 e + a 4 e + a 1 e + a 2 e + a 3 e + a 4 e + a 

3:31
G|-------------------------------------------------9-------7---5---|
D|---------------------5-------------------------7-----------------|
A|-3---3---3---3-/-7-------7---\-----------------------------------|
D|-------------------------------------2---------------------------|
   1 e + a 2 e + a 3 e + a 4 e + a 1 e + a 2 e + a 3 e + a 4 e + a 

G|-----------------------------------------------------------------|
D|---------7-------5-------------------3---2---2---0---0-----------|
A|-------------7-------7---5---8---------------------------3---0---|
D|-7---7-----------------------------------------------------------|
   1 e + a 2 e + a 3 e + a 4 e + a 1 e + a 2 e + a 3 e + a 4 e + a 

3:42
G|-----------------------------------------------------------------|
D|---------------------5---2---------------2-------2---0-----------|
A|-3---3---3---3-/-7---------------------------------------3-------|
D|-----------------------------2-------2---------2-------------5---|
   1 e + a 2 e + a 3 e + a 4 e + a 1 e + a 2 e + a 3 e + a 4 e + a 

G|-----------------------------------------------------------------|
D|---------7---------------------------------------2-/-7---5-------|
A|-------------7---------------------------0---3h5-------------7---|
D|-7---7-----------5---5-------3-------3---------------------------|
   1 e + a 2 e + a 3 e + a 4 e + a 1 e + a 2 e + a 3 e + a 4 e + a 

3:52
G|-----------------------------------------------------------------|
D|---------------------5---2---------------2-------2---0-----------|
A|-3---3---3---3-/-7---------------------------------------3h5-3---|
D|-----------------------------2-------2---------2---------------5-|
   1 e + a 2 e + a 3 e + a 4 e + a 1 e + a 2 e + a 3 e + a 4 e + a 

G|-----------------------------------------------------------------|
D|---------7-------5-----------------------------------------------|
A|-------------7-------7---5---------------------------------------|
D|-7---------------------------3-----------------------------------|
   1 e + a 2 e + a 3 e + a 4 e + a 1 e + a 2 e + a 3 e + a 4 e + a 

G|-----------------------------------------------------------------|
D|-----------------------------------------------------------------|
A|---------------------------------3-------------------------------|
D|-----------------------------------------------------------------|
   1 e + a 2 e + a 3 e + a 4 e + a 1 e + a 2 e + a 3 e + a 4 e + a 

Tabbed by Dave Vucko

and as a bonus my tab of Nothing to Say



G|-----------------------------------------------------------------|
D|-----------------------------------------------------------------|
A|-----------------------------------------------------------------|
D|-4-------------/-10------------\-4-------------/-10------------\-|
   1 + 2 + 3 + 4 + 1 + 2 + 3 + 4 + 1 + 2 + 3 + 4 + 1 + 2 + 3 + 4 + 

G|-----------------------------------------------------------------|
D|-----------------------------------------------------------------|
A|-----------------------------------------------------------------|
D|-4-------------/-10------------\-4-------------/-10--------------|
   1 + 2 + 3 + 4 + 1 + 2 + 3 + 4 + 1 + 2 + 3 + 4 + 1 + 2 + 3 + 4 + 

rest

0:25
G|-------------------------------------------------------------------------|
D|-------------------------------------------------------------------------|
A|-------------------------------------------------------------------------|
D|-0-------0-------0-------0-------0-------0-----/-12-12-12-12-12-12-12-12-|
   1 + 2 + 3 + 4 + 1 + 2 + 3 + 4 + 1 + 2 + 3 + 4 + 1  +  2  +  3  +  4  + 

G|-------------------------------------------------------------------|
D|o-----------------------------------------------------------------o|
A|o-----------------------7-----4-5-----------------------7-----4-5-o|
D|--0-0-----0-0-----0-0-------0-----0-0-----0-0-----0-0-------0------|
    1 + 2 + 3 + 4 + 1 + 2 + 3 + 4 + 1 + 2 + 3 + 4 + 1 + 2 + 3 + 4 + 

0:42
G|-----------------------------------------------------------------|
D|-----------------------------------------------------------------|
A|-----------------------------------------------------------------|
D|-0---0---0---0---0---0---0---0---0---0---0---0---0---0---0---0---|
   1 e + a 2 e + a 3 e + a 4 e + a 1 e + a 2 e + a 3 e + a 4 e + a

G|-----------------------------------------------------------------|
D|-----------------------------------------------------------------|
A|-3-------------------------------1-----------1-------1---0-------|
D|-----------------------------------------------------------------|
   1 e + a 2 e + a 3 e + a 4 e + a 1 e + a 2 e + a 3 e + a 4 e + a

G|o|-------------------------------------------------------------------|
D|-|o-----------------------------------------------------------------o|
A|-|o-----------------------------------------------------------------o|
D|o|--0---0---0---0---0---0---0---0---0---0---0---0---0---0---0---0----|
      1 e + a 2 e + a 3 e + a 4 e + a 1 e + a 2 e + a 3 e + a 4 e + a

G|-----------------------------------------------------------------o|
D|------------------------------------------------------------------|
A|-3-------------------------------1-----------1-------1---0--------|
D|-----------------------------------------------------------------o|
   1 e + a 2 e + a 3 e + a 4 e + a 1 e + a 2 e + a 3 e + a 4 e + a

G|-------------------------------------------------------------------|
D|o-----------------------------------------------------------------o|
A|o-----------------------------------------------------------------o|
D|--0---0---0---0---0---0---0---0---0---0---0---0---0---0---0---0----|
    1 e + a 2 e + a 3 e + a 4 e + a 1 e + a 2 e + a 3 e + a 4 e + a

G|-----------------------------------------------------------------|
D|-----------------------------------------------------------------|
A|-3-------------------------------1-------------------------------|
D|---------------------------------------------3-------3---5-------|
   1 e + a 2 e + a 3 e + a 4 e + a 1 e + a 2 e + a 3 e + a 4 e + a

1:12
G|-------------------------------------------------------------------|
D|o-----------------------------------------------------------------o|
A|o-----------------------7-----4-5-----------------------7-----4-5-o|
D|--0-0-----0-0-----0-0-------0-----0-0-----0-0-----0-0-------0------|
    1 + 2 + 3 + 4 + 1 + 2 + 3 + 4 + 1 + 2 + 3 + 4 + 1 + 2 + 3 + 4 + 

1:23
G|-----------------------------------------------------------------|
D|-----------------------------------------------------------------|
A|-1---------------3-----3---3-3-------5-----5-----5-----5-----4-5-|
D|---------------------------------0-0---0-0---0-0---0-0---0-0-----|
   1 + 2 + 3 + 4 + 1 + 2 + 3 + 4 + 1 + 2 + 3 + 4 + 1 + 2 + 3 + 4 + 

G|-----------------------------------------------------------------|
D|-----------------------------------------------------------------|
A|-1-----1---1-1---3-----3---3-3-------5-----5-----5-----5-----4-5-|
D|---------------------------------0-0---0-0---0-0---0-0---0-0-----|
   1 + 2 + 3 + 4 + 1 + 2 + 3 + 4 + 1 + 2 + 3 + 4 + 1 + 2 + 3 + 4 + 

G|-----------------------------------------------------------------|
D|-----------3-----------------------------------------------------|
A|-1-----1-----1---3-----3---3-3-------5-----5-----5-----5-----4-5-|
D|---------------------------------0-0---0-0---0-0---0-0---0-0-----|
   1 + 2 + 3 + 4 + 1 + 2 + 3 + 4 + 1 + 2 + 3 + 4 + 1 + 2 + 3 + 4 + 

G|-----------------------------------------------------------------|
D|-----------------------------------------------------------------|
A|-1---------------2---------------3---------------4---------------|
D|-----------------------------------------------------------------|
   1 + 2 + 3 + 4 + 1 + 2 + 3 + 4 + 1 + 2 + 3 + 4 + 1 + 2 + 3 + 4 + 

1:47
G|-----------------------------------------------------------------|
D|-----------------------------------------------------------------|
A|-----------------------------------------------------------------|
D|-0-0-0-0-0-0-0-0-0-0-0-0-0-0-0-0-0-0-0-0-0-0-0-0-0-0-0-0-0-0-0-0-|
   1 e + a 2 e + a 3 e + a 4 e + a 1 e + a 2 e + a 3 e + a 4 e + a

G|-----------------------------------------------------------------|
D|-----------------------------------------------------------------|
A|-----------------------------------------------------------------|
D|-0-0-0-0-0-0-0-0-0-0-0-0-0-0-0-0-0-------------------------------|
   1 e + a 2 e + a 3 e + a 4 e + a 1 e + a 2 e + a 3 e + a 4 e + a

1:52
G|-----------------------------------------------------------------|
D|-----------------------------------------------------------------|
A|-----------------------------------------------------------------|
D|-0---0---0---0---0---0---0---0---0---0---0---0---0---0---0---0---|
   1 e + a 2 e + a 3 e + a 4 e + a 1 e + a 2 e + a 3 e + a 4 e + a

G|-----------------------------------------------------------------|
D|-----------------------------------------------------------------|
A|-3-------------------------------1-----------1-------1---0-------|
D|-----------------------------------------------------------------|
   1 e + a 2 e + a 3 e + a 4 e + a 1 e + a 2 e + a 3 e + a 4 e + a

G|o|-------------------------------------------------------------------|
D|-|o-----------------------------------------------------------------o|
A|-|o-----------------------------------------------------------------o|
D|o|--0---0---0---0---0---0---0---0---0---0---0---0---0---0---0---0----|
      1 e + a 2 e + a 3 e + a 4 e + a 1 e + a 2 e + a 3 e + a 4 e + a

G|-----------------------------------------------------------------o|
D|------------------------------------------------------------------|
A|-3-------------------------------1-----------1-------1---0--------|
D|-----------------------------------------------------------------o|
   1 e + a 2 e + a 3 e + a 4 e + a 1 e + a 2 e + a 3 e + a 4 e + a

G|-------------------------------------------------------------------|
D|o-----------------------------------------------------------------o|
A|o-----------------------------------------------------------------o|
D|--0---0---0---0---0---0---0---0---0---0---0---0---0---0---0---0----|
    1 e + a 2 e + a 3 e + a 4 e + a 1 e + a 2 e + a 3 e + a 4 e + a

G|-----------------------------------------------------------------|
D|-----------------------------------------------------------------|
A|-3-------------------------------1-------------------------------|
D|---------------------------------------------3-------3---5-------|
   1 e + a 2 e + a 3 e + a 4 e + a 1 e + a 2 e + a 3 e + a 4 e + a

2:23
G|-------------------------------------------------------------------|
D|o-----------------------------------------------------------------o|
A|o-----------------------7-----4-5-----------------------7-----4-5-o|
D|--0-0-----0-0-----0-0-------0-----0-0-----0-0-----0-0-------0------|
    1 + 2 + 3 + 4 + 1 + 2 + 3 + 4 + 1 + 2 + 3 + 4 + 1 + 2 + 3 + 4 + 

2:35
G|-----------------------------------------------------------------|
D|-----------------------------------------------------------------|
A|-1---------------3-----3---3-3-------5-----5-----5-----5-----4-5-|
D|---------------------------------0-0---0-0---0-0---0-0---0-0-----|
   1 + 2 + 3 + 4 + 1 + 2 + 3 + 4 + 1 + 2 + 3 + 4 + 1 + 2 + 3 + 4 + 

G|-------------------------------------------------------------------|
D|o-----------------------------------------------------------------o|
A|o-1-----1---1-1---3-----3---3-3-------5-----5-----5-----5-----4-5-o|
D|----------------------------------0-0---0-0---0-0---0-0---0-0------|
    1 + 2 + 3 + 4 + 1 + 2 + 3 + 4 + 1 + 2 + 3 + 4 + 1 + 2 + 3 + 4 + 

2:51
G|-----------------------------------------------------------------|
D|-------3-3-3-----------5-5-5-----------5-5-5-----------7-7-7-----|
A|-1-----------1---2-----------2---3-----------3---4-----------4---|
D|-----------------------------------------------------------------|
   1 + 2 + 3 + 4 + 1 + 2 + 3 + 4 + 1 + 2 + 3 + 4 + 1 + 2 + 3 + 4 + 

2:59
G|-----------------------------------------------------------------|
D|-----------------------------------------------------------------|
A|-----------------------------------------------------------------|
D|-0-------0-------0-------0-------0-------0-------0-------0-------|
   1 e + a 2 e + a 3 e + a 4 e + a 1 e + a 2 e + a 3 e + a 4 e + a

G|-----------------------------------------------------------------|
D|-----------------------------------------------------------------|
A|-3-------------------------------1-----------1-------1---0-------|
D|-----------------------------------------------------------------|
   1 e + a 2 e + a 3 e + a 4 e + a 1 e + a 2 e + a 3 e + a 4 e + a

G|-------------------------------------------------------------------|
D|o-----------------------------------------------------------------o|
A|o-----------------------------------------------------------------o|
D|--0-------0-------0-------0-------0-------0-------0-------0--------|
    1 e + a 2 e + a 3 e + a 4 e + a 1 e + a 2 e + a 3 e + a 4 e + a

G|-----------------------------------------------------------------|
D|-----------------------------------------------------------------|
A|-3-------------------------------1-----------1-------1---0-------|
D|-----------------------------------------------------------------|
   1 e + a 2 e + a 3 e + a 4 e + a 1 e + a 2 e + a 3 e + a 4 e + a

G|o|-------------------------------------------------------------------|
D|-|o-----------------------------------------------------------------o|
A|-|o-----------------------------------------------------------------o|
D|o|--0-------0-------0-------0-------0-------0-------0-------0--------|
      1 e + a 2 e + a 3 e + a 4 e + a 1 e + a 2 e + a 3 e + a 4 e + a

G|-----------------------------------------------------------------o|
D|------------------------------------------------------------------|
A|-3-------------------------------1---------------1-------0--------|
D|-----------------------------------------------------------------o|
   1 e + a 2 e + a 3 e + a 4 e + a 1 e + a 2 e + a 3 e + a 4 e + a

3:28
G|-----------------------------------------------------------------|
D|-----------------------------------------------------------------|
A|-----------------------7-----4-5-----------------------7-----4-5-|
D|-0-0-----0-0-----0-0-------0-----0-0-----0-0-----0-0-------0-----|
   1 + 2 + 3 + 4 + 1 + 2 + 3 + 4 + 1 + 2 + 3 + 4 + 1 + 2 + 3 + 4 + 

G|-----------------------------------------------------------------|
D|-----------------------------------------------------------------|
A|-----------------------7-----4-5-----------------------5-7-7-5-4-|
D|-0-0-----0-0-----0-0-------0-----0-0-----0-0-----0-0-------------|
   1 + 2 + 3 + 4 + 1 + 2 + 3 + 4 + 1 + 2 + 3 + 4 + 1 + 2 + 3 + 4 + 

3:41
G|-----------------------------------------------------------------|
D|-----------------------------------------------------------------|
A|-1-1-1-1-1-1-1-1-1-1-1-1-1-1-1-0-3-3-3-3-3-3-3-3-3-3-3-0-3-5-3-0-|
D|-----------------------------------------------------------------|
   1 + 2 + 3 + 4 + 1 + 2 + 3 + 4 + 1 + 2 + 3 + 4 + 1 + 2 + 3 + 4 + 

G|-----------------------------------------------------------------|
D|-----------------------------------------------------------------|
A|-1-1-1-1-1-1-1-1-1-1-1-1-1-1-3-5-3-3-3-3-3-3-3-3-3-3-3-5-7-7-5-3-|
D|-----------------------------------------------------------------|
   1 + 2 + 3 + 4 + 1 + 2 + 3 + 4 + 1 + 2 + 3 + 4 + 1 + 2 + 3 + 4 + 

G|-----------------------------------------------------------------|
D|-----------------------------------------------------------------|
A|-1-1-1-1-1-1-1-1-1-1-1-1-1-1-1-5-3-3-3-3-3-3-3-3-3-3-3-3-3-5-3-0-|
D|-----------------------------------------------------------------|
   1 + 2 + 3 + 4 + 1 + 2 + 3 + 4 + 1 + 2 + 3 + 4 + 1 + 2 + 3 + 4 + 

G|-----------------------------------------------------------------|
D|-----------------------------------------------------------------|
A|-1-1-1-1-1-1-1-1-2-2-2-2-2-2-2-0-3-3-3-3-3-3-3-3-4-4-4-4-4-4-4-4-|
D|-----------------------------------------------------------------|
   1 + 2 + 3 + 4 + 1 + 2 + 3 + 4 + 1 + 2 + 3 + 4 + 1 + 2 + 3 + 4 + 

4:05
G|-------------------------------------------------------------------|
D|o-----------------------------------------------------------------o|
A|o-----------------------------------------------------------------o|x4
D|--0-0-0-0-0-0-0-0-0-0-0-0-0-0-0-0-0-0-0-0-0-0-0-0-0-0-0-0-0-0-0-0--|
    1 e + a 2 e + a 3 e + a 4 e + a 1 e + a 2 e + a 3 e + a 4 e + a

4:17
G|-----------------------------------------------------------------|
D|-----------------------------------------------------------------|
A|-1---------------3-----3---3-3-------5-----5-----5-----5-----4-5-|
D|---------------------------------0-0---0-0---0-0---0-0---0-0-----|
   1 + 2 + 3 + 4 + 1 + 2 + 3 + 4 + 1 + 2 + 3 + 4 + 1 + 2 + 3 + 4 + 

G|-------------------------------------------------------------------|
D|o-----------------------------------------------------------------o|
A|o-1-----1---1-1---3-----3---3-3-------5-----5-----5-----5-----4-5-o|
D|----------------------------------0-0---0-0---0-0---0-0---0-0------|
    1 + 2 + 3 + 4 + 1 + 2 + 3 + 4 + 1 + 2 + 3 + 4 + 1 + 2 + 3 + 4 + 

G|-----------------------------------------------------------------|
D|-----------------------------------------------------------------|
A|-1---------------2---------------3---------------4---------------|
D|-----------------------------------------------------------------|
   1 + 2 + 3 + 4 + 1 + 2 + 3 + 4 + 1 + 2 + 3 + 4 + 1 + 2 + 3 + 4 + 

4:41
G|-----------------------------------------------------------------|
D|-----------------------------------------------------------------|
A|-----------------------------------------------------------------|
D|-0-0-0-0-0-0-0-0-0-0-0-0-0-0-0-0-0-0-0-0-0-0-0-0-0-0-0-0-0-0-0-0-|
   1 e + a 2 e + a 3 e + a 4 e + a 1 e + a 2 e + a 3 e + a 4 e + a

G|-----------------------------------------------------------------|
D|----------------------------------(triplets)---------------------|
A|---------------------------------3----2----1-----0---------------|
D|-0-0-0-0-0-0-0-0-0-0-0-0-0-0-0-0----------------------6----5-----|
   1 e + a 2 e + a 3 e + a 4 e + a 1 e + a 2 e + a 3 e + a 4 e + a

4:46
G|-----------------------------------------------------------------|
D|-----------------------------------------------------------------|
A|-----------------------------------------------------------------|
D|-4-------------/-10------------\-4-------------/-10------------\-|
   1 + 2 + 3 + 4 + 1 + 2 + 3 + 4 + 1 + 2 + 3 + 4 + 1 + 2 + 3 + 4 + 

G|------------------------------------------------------------------------------------------------|
D|------------------------------------------------------------------------------------------------|
A|------------------------------------------------------------------------------------------------|
D|-4-------------/-10------------\-4-------------/-10-10-------10-------10-10----10-------10-10-\-|
   1 + 2 + 3 + 4 + 1 + 2 + 3 + 4 + 1 + 2 + 3 + 4 + 1  e  +  a  2  e  +  a  3  e  +  a  4  e  +  a  

5:05
G|-----------------------------------------------------------------|
D|-----------------------------------------------------------------|
A|-----------------------------------------------------------------|
D|-4-4-4-4-4-----/-10------------\-4-------------/-10--------------|
   1 + 2 + 3 + 4 + 1 + 2 + 3 + 4 + 1 + 2 + 3 + 4 + 1 + 2 + 3 + 4 + 

Enjoy

            
            
Suggest correction
Creating personal tab
Creating personal tab
You can edit any tab online and save it as your Personal.

You can edit, replace or remove any tab part or add personal notes – all changes will be seen only by you.

Personal tabs can be accessed anytime from any device, even offline.
Learn more »
Give kudos to tab author, rate the tab!
1 2 3 4 5
comments
print report bad tab
guest
You may want to rate the tab now too:
select rating
Wanna post a correction for this tab? Suggest correction