Oops, an error
Loading. Please wait.

I Hold On Tab

version 2
version 2

Whole song

Interactive

45,792 views 6 this week
2 commentsread comments
1 2 3 4 5
excellent!
x 16
add to favorites
launch autoscroll
font size
0
reset
how to read this tab
guitar tuner
Tab Pro tools
  • play this tab
  • loop segment
  • change instrument
  • show fretboard
  • metronome
×
Best way to learn
"I Hold On"
Autoscroll
slow
fast
+/-
esc
set tempo
stop
Difficulty
intermediate
INTRO:
e-------------------------------------------------------------|
B--------------------------1--1-------------------------------|
G-----9--7/9--7----2--0^2-----0-------------------------------|
D-----7--5/7--5----3----------2----0--------------------------|
A--0---------------3----------3-------3b----------------------|
E-------------------------------------------------------------| x2

VERSE:
e-------------------------------------------------------------|
B-----------------------------------1-------0-----------------|
G--------2-----------0-----------2--0--0^2-----0^2------------|
D-----2-----2-----0-----0-----3-------------------------------|
A--0----------------------------------------------------------|
E--------------3-----------1----------------------------------|

e--------------------------------------3----------------------|
B-----------------------------------1-----3brp1---------------|
G--------2-----------0-----------2---------------2------------|
D-----2-----2-----0-----0-----3-------------------------------|
A--0----------------------------------------------------------|
E--------------3-----------1----------------------------------|

e-------------------------------------------------------------|
B-----------------------------------1-------------------------|
G--------2-----------0-----------2--0-------0-----------------|
D-----2-----2-----0-----0-----3--------0^2-----0^2------------|
A--0----------------------------------------------------------|
E--------------3-----------1----------------------------------|

e-------------------------------------------------------------|
B-----------------------------------1-------------------------|
G--------2-----------0-----------2--0-------------------------|
D-----2-----2-----0-----0-----3-------------0--2--0-----------|
A--0-----------------------------------0^3-----------3--------|
E--------------3-----------1----------------------------------|

PRE-CHORUS:
e--------------------------------------------------------------|
B--------------------------------------------------------------|
G--7--7--x--7--7--x--------------------------------------------|
D--7--7--x--7--7--x--3-----3--3--3--3--x--x--------------------|
A--5--5--x--5--5--x--3-----3--3--3--3--x--x--3-----------------|
E--------------------1-----1--1--1--1--x--x--------------------|

e--------------------------------------------------------------|
B--------------------------------------------------------------|
G--7--7--x--7--7--x----------------------0---------------------|
D--7--7--x--7--7--x--3-----3--3--3-------0---------------------|
A--5--5--x--5--5--x--3-----3--3--3--0^2-----0^2----------------|
E--------------------1-----1--1--1-----------------------------|

CHORUS:                                     x2
e---------------------------------------------|----1-----0--------|
B--1------------------------------------------|----1-----1--------|
G--0-----------0-----1----------5-----4-----2-|----1-----0---4br--|
D--2------0^2-----2--2----------7-----5-----3-|----3-----2--------|
A--3-----------------2----------7-----5-----3-|----3-----3--------|
E--------------------0----------5-----3-----1-|----1--------------|

Solo:
e--------------------------------------------------------------|
B--------------------------------------------------------------|
G--------------------------------------------------------------|
D--7----5b---------------------2/3\2-------------5-----7-------|
A-----------7/5--3--5br--3------------3--3--3/7-----7-----7----|
E---------------------------5----------------------------------|

e--------------------------------------------------------------|
B--------------6b----6^5^6--5b--5-------------------10---------|
G--5--------5----------------------4brb/7------7/9------9------|
D-----7--7---------------------------------10------------------|
A--------------------------------------------------------------|
E--------------------------------------------------------------|

e-----------------------------------------------------15-13-12-13---|
B--13--10--10/13--15--13---------15brp13------13--15b---------------|
G-------------------------14^12-----------14------------------------|
D-------------------------------------------------------------------|
A-------------------------------------------------------------------|
E-------------------------------------------------------------------|

e--12^13^12------12---------------15-------15------------------|
B------------15------15brp13----------15b------15brp13---------|
G-----------------------------14------------------------14-----|
D--------------------------------------------------------------|
A--------------------------------------------------------------|
E--------------------------------------------------------------|

e--12b--12----------------17------20b--20brb--19^20--19b-------|
B-----------13--13--2/19------17-------------------------------|
G--------------------------------------------------------------|
D--------------------------------------------------------------|
A--------------------------------------------------------------|
E--------------------------------------------------------------|

e--19--19----19^20^19--20b--20b--20b--19^20-19b----------------|
B--------------------------------------------------------------|
G--------------------------------------------------------------|
D--------------------------------------------------------------|
A--------------------------------------------------------------|
E--------------------------------------------------------------|

e--19br--17--19-------20---------------------------------------|
B----------------20b(hold)r--17--20-------17--17--20-----------|
G------------------------------------19b--------------19br--17-|
D--------------------------------------------------------------|
A--------------------------------------------------------------|
E--------------------------------------------------------------|

e---------------------------------------------------------------------------|
B------18^17-18^17-18^17-----------------------------------17---------------|
G-------------------------19-17-19-17/16-17-16----------16----19brp17-------|
D--19------------------------------------------18----18---------------17^19-|
A-------------------------------------------------19------------------------|
E---------------------------------------------------------------------------|

e---------------------------------------------------------------------------|
B---------------------------------------------------------------------------|
G-19^17---------------------------------------------------------------------|
D-------19----17^19-17--------------------------------------17----17^19-----|
A----------19----------19/17-15-17----15^17-15--17^15-17/19----19-----------|
E----------------------------------17---------------------------------------|

e--------------------------------------------------------------|
B-17----19br-17-----19br-17----19br-17----19b------------------|
G----19---------19----------19---------19----------------------|
D--------------------------------------------------------------|
A--------------------------------------------------------------|
E--------------------------------------------------------------|
comments
print report bad tab
2 comments total.
0 reply
Kreuger wrote on June 13 2010, 04:26 am

Nice tab, it just needs the little lead over the chorus and the last little solo

0 reply
marnie94 wrote on July 28 2010, 04:05 pm

Think the "chorus-outro" goes:

I.... Hold on
e------------------------------(0)--------|
B-------------------------------1---------|
G---10-10\9---------------------0---------|
D-----------10\7--6~------------2---------|
A-------------------------------3---------|
E-----------------------------------------|

Then intro again, etc.

Nice tab!

I want to post or [tab]
guest
You may want to rate the tab now too:
select rating
Please do not post tabs as comments. Select "correction" instead!